Song name
# A B C D E F G H I J K L M N O P Q R S T U V W X Y Z

Cavo - Circles tab

-------------------------------------------------------------------------------
                               Cavo - Circles
-------------------------------------------------------------------------------
Tabbed by: Brad Fletcher, All done by ear.
E-mail: bradf987@gmail.com

Tuning: Drop D


Intro, Guitar 1 & 2
e|-*15-----------------------------------------------------------------------|
B|---------------------------------------------------------------------------|
G|---------------------------------------------------------------------------|
D|---------------------------------------------------------------------------|
A|---------------------------------------------------------------------------|
D|------+3------5-8-5-5-10-5--55-3-5-----5-8-5-5-10-5--55-3-5----------------|

From 0.12 to 0.19, Guitar 1 plays the riff, then plays

e|---------------------------------------------------------------------------|
B|---------------------------------------------------------------------------|
G|-10-----5------7x----------------------------------------------------------|
D|---------------------------------------------------------------------------|
A|---------------------------------------------------------------------------|
D|-8------3------5x----------------------------------------------------------|

Then both Guitars repeat the verse, 

Then the Chorus
x2
e|---------------------------------------------------------------------------|
B|---------------------------------------------------------------------------|
G|-------7-7-777777--10-10-1010--5-5-555555----------------------------------|
D|---------------------------------------------------------------------------|
A|---------------------------------------------------------------------------|
D|-+10---5-5-555555--8-8-888888--3-3-333333---5-8-5-5-10-5--55-3-5-----------|
(0.36)

2nd time through (0.55) Play
e|---------------------------------------------------------------------------|
B|---------------------------------------------------------------------------|
G|--7-7--10-10--12pb---------------------------------------------------------|
D|---------------------------------------------------------------------------|
A|---------------------------------------------------------------------------|
D|--5-5---8-8---10pb---------------------------------------------------------|

Guitar 1 plays the Intro Riff 2 times, while Guitar 2 plays:
e|--------3----------3----------------3----------3-------7-------------------|
B|-3-7-33---33-7-33-----33-----3-7-33---33-7-33-----33-----------------------|
G|---------------------------------------------------------------------------|
D|---------------------------------------------------------------------------|
A|---------------------------------------------------------------------------|
E|---------------------------------------------------------------------------|

Then the Verse, Chorus, Then

Bride
e|---------------------------------------------------------------------------|
B|---------------------------------------------------------------------------|
G|---------------------------------------------------------------------------|
D|-8-8-888888---7-7-777777---5-5-555555---7-7-777777--x2---------------------|
A|-6-6-666666---5-5-555555---3-3-333333---5-5-555555--x2---------------------|
D|---------------------------------------------------------------------------|
(2.05)

e|---------------------------------------------------------------------------|
B|---------------------------------------------------------------------------|
G|--7-----10----5------------------------------------------------------------|
D|---------------------------------------------------------------------------|
A|---------------------------------------------------------------------------|
D|--5-----8-----3------------------------------------------------------------|
(2.26)

Chorus, then play the chorus riff twice, and for the Outro, play the Intro riff 4 times.


All by ear.


| *   Pinch harmonic
| /   slide up
| \   slide down
| h   hammer-on
| p   pull-off
| ~   vibrato
| +   Natural harmonic
| x   Mute note
| b   Bend
| pb  Pre-bend
| br  Bend release
| pbr Pre-bend release
Tap to rate this tab
 
# A B C D E F G H I J K L M N O P Q R S T U V W X Y Z