Song name
# A B C D E F G H I J K L M N O P Q R S T U V W X Y Z

Chevelle - Saturdays tab

Artist: Chevelle
Song: Saturdays
Tuning: B F# B E G# C# (Drop B)
Key: p = pull off
     h = hammer on

Intro/Pre-Verse
C#---------------------------------------------------|
G#---------------------------------------------------|
E-----------12--12--12--12----------11-11-11-11-11-9-|
B--11h12p11----------------12-11---------------------|
F#---------------------------------------------------|
B----------------------------------------------------|


C#---------------------------------------------------|
G#---------------------------------------------------|
E-----------12--12--12--12---------------------------|
B--11h12p11----------------12-11---11-11-11-11-11-11-|
F#---------------------------------------------------|
B----------------------------------------------------|


Verse/Pre-Chorus
C#-----------------|
G#-----------------|
E------------------|
B--9- 16x ---------|
F#-7-------7- 16x -|
B----------7-------|

Chorus
C#-----------------------------------------------------------------|
G#-----------------------------------------------------------------|
E------------------------------------------------------------------|
B--9-9-9-7-7-7-5-5-5-5-5-5-5-5-5-5-2-2-2-2-2-2-2-2-2-2-2-2-2-2-2-2-|
F#-7-7-7-5-5-5-5-5-5-5-5-5-5-5-5-5-2-2-2-2-2-2-2-2-2-2-2-2-2-2-2-2-|
B--------------5-5-5-5-5-5-5-5-5-5-2-2-2-2-2-2-2-2-2-2-2-2-2-2-2-2-|

This is played at the end of the Chorus
C#---------------------------|
G#---------------------------|
E----------------------------|
B--2-2-2-2-2--002-2-2--2-2-2-|
F#-2-2-2-2-2--002-2-2--2-2-2-|
B--2-2-2-2-2--002-2-2--2-2-2-|

Bridge
C#-------------------------------------------------------------------------|
G#-------------------------------------------------------------------------|
E--4-4-4-4-4-4-4-4-11-11-11-11-11-11-11-11-9-9-9-9-9-9-9-9-9-9-9-9-9-9-9-9-|
B--2-2-2-2-2-2-2-2-x--x--x--x--x--x--x--x--7-7-7-7-7-7-7-7-7-7-7-7-7-7-7-7-|
F#-2-2-2-2-2-2-2-2-9--9--9--9--9--9--9--9--7-7-7-7-7-7-7-7-7-7-7-7-7-7-7-7-|
B--2-2-2-2-2-2-2-2-0--0--0--0--0--0--0--0--7-7-7-7-7-7-7-7-7-7-7-7-7-7-7-7-|

Then
C#-----------------------------------|
G#-----------------------------------|
E-11-11-11-9-9-9---------------------|
B----------7-7-7-7-7-7-7-7-7-7-7-7-7-|
F#---------------5-5-5-5-5-5-5-5-5-5-|
B------------------------------------|
Tap to rate this tab
 
# A B C D E F G H I J K L M N O P Q R S T U V W X Y Z