Song name
# A B C D E F G H I J K L M N O P Q R S T U V W X Y Z

Chevelle - The Red tab

This is a crappy song but I needed to learn it for my band to play b/c the birthday girl loves this song 
Standard tuning
Verse and Intro Palm Muted
e---------------------------------------------
b---------------------------------------------
g--6-6--8-6---0------------6-6-8-6---0-9-9-9-9
d--6-6--8-6---0--2-2-2--0--6-6-8-6---0-9-9-9-9
A--4-4--6-4---0--2-2-2--0--4-4-6-4---0-7-7-7-7
E----------------0-0-0--0---------------------

Chorus:
e---------------------------------------------
b---------------------------------------------
g--6-6--9-9-----------------------------------
d--6-6--9-9--9-9-9-9--------------------------
A--4-4--7-7--9-9-9-9--------------------------
E------------7-7-7-7--------------------------

The amount of times I put the fingering doesn't mean strum it that many times. You'll have to get the timing by listening to the song.
Hope you enjoy.
Tap to rate this tab
# A B C D E F G H I J K L M N O P Q R S T U V W X Y Z