Song name
# A B C D E F G H I J K L M N O P Q R S T U V W X Y Z

Children Collide - Chosen Armies tab

Song: Chosen Armies
Artist: Children Collide
Album: The Long Now
Part: Intro

Standed Tuning


Tremlo Picking
|--0-4-7-3--2-3--|---12-16-19-15--14-15--|
|----------------|-----------------------|
|---------------0|----------------------0|
|---------------0|----------------------0|
|----------------|-----------------------|
|----------------|-----------------------|


|----------------------------------------|
|----------------------------------------|
|-----99--77--33------99--77--3----------|
|-22--99--77--33--22--99--77-------------|
|-22--77--55--11--22--77--55-------------|
|-00--------------00---------------------|
Tap to rate this tab
# A B C D E F G H I J K L M N O P Q R S T U V W X Y Z