Song name
# A B C D E F G H I J K L M N O P Q R S T U V W X Y Z

Children Collide - Fire Engine tab

e|-------------------------------------------------------------------|
B|-------------------------------------------------------------------|
G|-------------------------------------------------------------------|
D|-------------------------------------------------------------------|
A|-0-0-0--0-0-----0-0-0--0-0-----2-2-2-2-3-3-2-2--3-2-0-2-2-0-0-0----|
E|------------1-1------------1-1-------------------------------------|

e|-------------------------------------------------------------------|
B|-------------------------------------------------------------------|
G|-------------------------------------------------------------------|
D|-------------------------------------------------------------------|
A|-0-0-0--0-0-------0-0-0--0-0-----2-3-5-7-5-7-10-8-7-5-7-5-7-5-7----|
E|-------------1-1-------------1-1-----------------------------------|

e|-------------------------------------------------------------------|
B|-------------------------------------------------------------------|
G|-------------------------------------------------------------------|
D|-------------------------------------------------------------------|
A|-12-14-15-17-15-17-----20-19--17--15--11--12-----------------------|
E|-------------------------------------------------------------------|

e|-------------------------------------------------------------------|
B|-------------------------------------------------------------------|
G|-------------------------------------------------------------------|
D|-11-12-14-11-12-14-11-12-17-14-17-14-17-14-17-14-------------------|
A|-0-0-0-0-0-0-0-0-0-0-0-0-0-0-0-0-0-0-0-0-0-0-0-0-------------------|
E|-------------------------------------------------------------------|

e|-------------------------------------------------------------------|
B|-------------------------------------------------------------------|
G|-------------------------------------------------------------------|
D|---19--15----11----14----------------------------------------------|
A|---0-0-0-0-0-0-0-0-0-0-0-0-0---------------------------------------|
E|-------------------------------------------------------------------|
Tap to rate this tab
# A B C D E F G H I J K L M N O P Q R S T U V W X Y Z