Song name
# A B C D E F G H I J K L M N O P Q R S T U V W X Y Z

Children Collide - Across The Earth tab

\= slide down neck
/= slide up neck
b= bend
hb= half bend
r= release bent note
h= hammer on
p= pull off
~= hold note

Main Riff
this is played throughout the song just listen to it to get the timing and strumming pattern

|--------------------------------------------------------------|
|--------------------------------------------------------------|
|-7---5---3---7------------------------------------------------|
|-7---5---3---7------------------------------------------------|
|-5---3---1---5------------------------------------------------|
|--------------------------------------------------------------|
and just repeat, its the same riff in the Chorus just louder

1st Lead Break
|-----------------------------------------------------------------------------|
|-----------------------------------------------------------------------------|
|-------12h14-12-14 14/17-14-12-14-14-10h12-12-12-----------------------------|
|-12h15------------------------------------------10-12-12-12-12-12-12-12------|
|-----------------------------------------------------------------------------|
|-----------------------------------------------------------------------------|

|-----------------------------------------------------------------|
|-----------------------------------------------------------------|
|---9------12-------14-------17------14---------------------------|
|-7---7/10----10/12----12/15----15\12---12------------------------|
|-----------------------------------------------------------------|
|-----------------------------------------------------------------|

|-----------------------------------------------------------------------------|
|-----------------------------------------------------------------------------|
|-------12h14-12-14 14/17-14-12-14-14-10h12-12-12-----------------------------|
|-12h15------------------------------------------10-12-12-12-12-12-12-12------|
|-----------------------------------------------------------------------------|
|-----------------------------------------------------------------------------|

|------------------------------------------------------------------|
|---15\--17\--18\--17\--18hbr-18hbr-18hbr-18hbr--------------------|
|------------------------------------------------------------------|
|------------------------------------------------------------------|
|------------------------------------------------------------------|
|------------------------------------------------------------------|
                                                        ^these are half bend and release 
notes with some vibrato

2nd Lead Break
repeat this however many times
|-----------------------------------------------------------------------------|
|-----------------------------------------------------------------------------|
|-------12h14-12-14 14/17-14-12-14-14-10h12-12-12-----------------------------|
|-12h15------------------------------------------10-12-12-12-12-12-12-12------|
|-----------------------------------------------------------------------------|
|-----------------------------------------------------------------------------|

each note is picked 8 times except the second 5 and last 17
|------------------------------------------------------------------|
|-------------------------------------------------15---------------|
|-2--5--7-5-7--10--7--10--12--14--12--14--12--17------17--19-------|
|------------------------------------------------------------------|
|------------------------------------------------------------------|
|------------------------------------------------------------------|

thats it just listen to the song for timing and rhythm
Tap to rate this tab
 
# A B C D E F G H I J K L M N O P Q R S T U V W X Y Z