Song name
# A B C D E F G H I J K L M N O P Q R S T U V W X Y Z

Chingon - Alacran Y Pistolero tab

e-------------------------------------------------------|
B-----1---------0-------0----------1---------0----------|
G-------2-----2---2-------0----------2-----2---2--------|
D-----------1-------1--------------------1-------1------|
A-----0---2------------------------0---2----------------|
E-0-3-----------------0--------0-3-----------------0----|


  Em          Am     B7      Em
e--------------------------------------------|
B-----------0---1----------0--------0--------|
G---------0-------2------2---2--------0------|
D-------2--------------1-------1-------------|
A-----2-------0------2-----------------------|
E-0-3----------------------------0-----------|



e-----------------------2-2-2-2---0-----------------|
B-----------0---1-------0-0-0-2---0-----------------|
G---------0-------2-----2-2-2-2---0-----------------|
D-------2---------------1-1-1-1---2-----------------|
A-----2-------0---------2-2-2-2---2-----------------|
E-0-3-------------------0-0-0-0---0-----------------|






sry wen was falsch ist ist meine erste tabulation die ich selber mache
Tap to rate this tab
 
# A B C D E F G H I J K L M N O P Q R S T U V W X Y Z