Song name
# A B C D E F G H I J K L M N O P Q R S T U V W X Y Z

Chunk No Captain Chunk - Taking Chances tab

                                  Taking Chances
                            
                            by Chunk!No Captain Chunk!

Drop A#

This are the tab that i made by ear 
from the new Chunk No Captain Chunk single Taking Chances

Enjoy and if you find better ways to do this song please write me, these are 
temporary tabs made at the moment so these aren't 100% exacts 

INTRO

Guitar1               00:00

C |------------------------------------------|
G |-------13--13--13-------------------------|
D#|--9s10---10--10--10-----------------------|
A#|------------------------------------------| x4
F |------------------------------------------|
A#|------------------------------------------|

Guitar2               00:04

C |------------------------------------------|
G |------------------------------------------|
D#|------------------------------------------|
A#|------------------------------------------|
F |------------------------------------------| x2
A#|--3-3-3-3-3-3-3---------------------------|



Guitar2               00:08

C |----------------------------------------------|
G |----------------------------------------------|
D#|----------------------------------------------|
A#|--3-3-3-3-3-3-3------10---8-8-8-8-8-8----8s-3-|
F |--3-3-3-3-3-3-3-x2--8-----8-8-8-8-8-8-x2-8s-3-| 
A#|--3-3-3-3-3-3-3-----------8-8-8-8-8-8----8s-3-|
Tap to rate this tab
# A B C D E F G H I J K L M N O P Q R S T U V W X Y Z