Song name
# A B C D E F G H I J K L M N O P Q R S T U V W X Y Z

Chunk No Captain Chunk - For All We Know Acoustic tab

-----------------------------------------------------------------------------
                FOR ALL WE KNOW - Chunk! No, Captain Chunk!
-----------------------------------------------------------------------------
Tabbed by: Nick546321
        
        All I could figure out by ear. A few harmony parts are missing

Tuning: Standard (EADGBe) Acoustic

Intro(Verse):
               D                         A             G                                        
e|-----------------------------x-x-5-5-x-5-5-5-x-3-3-3-x-3-3-3------|
B|-7-7-x-7-7-7-x-7-7-7-x-7-7-7-x-x-5-5-x-5-5-5-x-3-3-3-x-3-3-3------|
G|-7-7-x-7-7-7-x-7-7-7-x-7-7-7-x-x-6-6-x-6-6-6-x-4-4-4-x-4-4-4------|   (x2)
D|-7-7-x-7-7-7-x-7-7-7-x-7-7-7-x-x-7-7-x-7-7-7-x-5-5-5-x-5-5-5------|
A|-5-5-x-5-5-5-x-5-5-5-x-5-5-5-x-x-7-7-x-7-7-7-x-5-5-5-x-5-5-5------|
E|-----------------------------x-x-5-5-x-5-5-5-x-3-3-3-x-3-3-3------|

Verse cont. (also chorus)
   D for 3 measures             Bm for 1 measure
e|-2------------------------------2-----------------------------------------|
B|-3------------------------------3-----------------------------------------|
G|-2------------------------------4-----------------------------------| (x2)
D|-0------------------------------4-----------------------------------------|
A|--------------------------------2-----------------------------------------|
E|--------------------------------------------------------------------------|

Guitars:
    (Knocks)                     G for 2 measures
e|-----5~-----5p3---------5-----------------------|    |-------2-------|
B|---3------------3-3---3---0---------------------|    |-------3-------|
G|--------------------2---------0-----------------|    |-------0-------|
D|-0----------------------------0-----------------|    |-------4-------|
A|------------------------------2-----------------|    |-------x-------|
E|------------------------------3-----------------|    |-------3-------|

Chorus x 1

Verse x 1

Guitars 2:
                             |
                        
                    
Tap to rate this tab
 
# A B C D E F G H I J K L M N O P Q R S T U V W X Y Z