Song name
# A B C D E F G H I J K L M N O P Q R S T U V W X Y Z

Cinder - She Said tab

rythem played through whole song
e(-------1----------------------)
b(--3-3-33----------------------)
g(--2-2-2--3-3-33-2-2-22--------)
d(--0-0-0--3-3-3--3-3-33-0-0-00-)
a(---------1-1-1--3-3-3--2-2-22-)
E(-----------------------3-3-3--)

lead verse
e(------------------)
b(--9-999-7-3/4-7-2-)
g(------------------)
d(------------------)
a(------------------)
E(------------------)

chorus
e(--------------)
b(--------------)
g(--333---------)
d(--333-333-555-)
a(--111-333-555-)
E(------111-333-)
Tap to rate this tab
 
# A B C D E F G H I J K L M N O P Q R S T U V W X Y Z