Song name
# A B C D E F G H I J K L M N O P Q R S T U V W X Y Z

Circa Survive - Kicking Your Crosses Down tab

Intro:
e|-----------------------------------------------|
b|-----------------------------------------------|
g|-----------------------------------------------|
d|-8---------15------13-------8-----15---13/12---|
a|-----------------------------------------------|
D|-----------------------------------------------|
verse with delay
e|----10----------6--------------------------------------|
b|-------------------8---------6-------------------------|
g|-------------------------------------------------------|
d|-----------------------------------5-----3/2-----------|
a|-------------------------------------------------------|
D|-------------------------------------------------------|

g|-------------------------------------------|
d|-------------------------------------------|
a|-------------------------------------------|
D|-------------------------------------------|
Tap to rate this tab
 
# A B C D E F G H I J K L M N O P Q R S T U V W X Y Z