Song name
# A B C D E F G H I J K L M N O P Q R S T U V W X Y Z

Circa Survive - The Difference Between Medicine And Poison Is In The Dose tab

Help us improve GuitareTab! Take a short survey!
Band: Circa Survive 
Song: The Difference Between Medicine and Poison is in the Dose
Album: On Letting Go
Tabbed By: Matt Florio; myspace.com/mattflorio2
Email: Shempashland@yahoo.com

Tuning: half step down 

Enjoy... listen to the song for a guideline!
Contact me if you have any issues.

Intro
e---4----7-6-------|-16----19-18---------e
b-----4------7-5---|---16-------19-16----b
g-------4--------6-|-----16----------18--g
d------------------|---------------------d
a------------------|---------------------a
e------------------|---------------------e
 
Verse
e-11------------9-11-9-12-14--16---19-18---------e
b---9-11-9-12-11----------------16------19-16----b
g---------------------------------16---------18--g
d------------------------------------------------d
a------------------------------------------------a
e------------------------------------------------e

Chorus
e-----------------------------|----------------------e
b--11(11b)-9-11(11b)-9--9-----|-119-119-9---9-12-11--b
g---------------------11--8-11|-----------11---------g
d-----------------------------|----------------------d
a-----------------------------|----------------------a
e-----------------------------|----------------------e

Bridge
e-----------------------14-----14--------------e
b--12-11------12-11-------12-11--12-11-14-12---b
g-------11---------11-8------------------------g
d----------------------------------------------d
a----------------------------------------------a
e----------------------------------------------a
Related for The Difference Between Medicine And Poison Is In The Dose tab