Song name
# A B C D E F G H I J K L M N O P Q R S T U V W X Y Z

Circa Survive - Every Way tab

-------------------------------------------------------------------------------
			     Every Way - Circa Survive
-------------------------------------------------------------------------------
Tabbed by: Chris Bishop
Email: blackenigma2@yahoo.com

Tuning: D-G-C-F-A-D


Verse 1 - "I will find a different"

d|---5--------------------------------------------|
A|---7-----7-----7-----7--------------------------|
F|---7-----7-----7-----7--------------------------| repeat 2x
C|---x-----5-----x-----5--------------------------|
G|---5-----------7--------------------------------|
D|------------------------------------------------|

Chorus 1 - "every way you wonder"
d|---5-----------------------------------------|
A|---7-----7-----7-----7-----------------------|
F|---7-----7-----7-----7-----------------------|
C|---x-----5-----x-----5-----------------------|
G|---5-----7-----7-----------------------------|
D|---------------------------------------------|

"I'm so mistaken, lost my direction"

d|---------5-----------------------------------------|
A|---7-----7--7-----7-----7--7--7--------------------|
F|---7-----7--7-----7-----7--7--7--------------------|
C|---x-----x--x-----x-----5--4--5--------------------|
G|---x-----5--x-----7--------------------------------|
D|---7--------5--------------------------------------|

Verse 2 - "I would find a different"

d|---5--------------------------------------------|
A|---7-----7-----7-----7--------------------------|
F|---7-----7-----7-----7--------------------------|
C|---x-----5-----x-----5--------------------------|
G|---5-----------7--------------------------------|
D|------------------------------------------------|

Chorus 2 - "every way you wonder"

d|---5-----------------------------------------|
A|---7-----7-----7-----7-----------------------|
F|---7-----7-----7-----7-----------------------|
C|---x-----5-----x-----5-----------------------|
G|---5-----7-----7-----------------------------|
D|---------------------------------------------|

"I'm so mistaken, lost my direction"

d|---5-----------------------------------------|
A|---7-----7-----7-----7-----------------------|
F|---7-----7-----7-----7-----------------------|
C|---x-----5-----x-----5-----------------------|
G|---5-----7-----7-----------------------------|
D|---------------------------------------------|

"every way you wonder"

d|---------5-----------------------------------------|
A|---7-----7--7-----7-----7--7--7--------------------|
F|---7-----7--7-----7-----7--7--7--------------------|
C|---x-----x--x-----x-----5--4--5--------------------|
G|---x-----5--x-----7--------------------------------|
D|---7--------5--------------------------------------|

Outro

d|---5-----------------------------------------|
A|---7-----7-----7-----7-----------------------|
F|---7-----7-----7-----7-----------------------|
C|---x-----5-----x-----5-----------------------|
G|---5-----7-----7-----------------------------|
D|---------------------------------------------|
Tap to rate this tab
 
# A B C D E F G H I J K L M N O P Q R S T U V W X Y Z