Song name
# A B C D E F G H I J K L M N O P Q R S T U V W X Y Z

Circle Jerks - Wonderful tab

-------------------------------------------------------------------------------
Wonderful - The Circle Jerks
Wonderful
-------------------------------------------------------------------------------
Tabbed by: axeslash
Email: holmzito@yahoo.com

Tuning: Both guitars Standard

Guitar 1:                        Guitar 1:
e|--------------------------|    e|--------------------------------------------|
B|--------------------------|    B|--------------------------------------------|
G|-6----4--2----------------|    G|-------------------------5----7-------------|
D|-6----4--2----2--4--------|    D|-7--7--7--5-7--7--7-7--7-5----7----7--------|
A|-4----2--0----2--4--------|    A|-7--7--7--5-7--7--7-7--7-3----5----7--------|
E|--------------0--2--------| x4 E|-5--5--5--3-5--5--5-5--5-----------5--------| x2
Guitar 1:                        Guitar 1:
e|--------------------------|    e|--------------------------------------------|
B|--------------------------|    B|--------------------------------------------|
G|-6----4--2----------------|    G|-------------------------5----7-------------|
D|-6----4--2----2--4--------|    D|-7--7--7--5-7--7--7-7--7-5----7----7--------|
A|-4----2--0----2--4--------|    A|-7--7--7--5-7--7--7-7--7-3----5----7--------|
E|--------------0--2--------| x4 E|-5--5--5--3-5--5--5-5--5-----------5--------| x4

Guitar 1:
e|--------------------------------------------------------|
B|--------------------------------------------------------|
G|--------------------------------------------------------|
D|--------------------------------------------------------|
A|-/5-5--5--8-5---------8-5--0----------------------------|
E|--------------8-7--7----------3~~~~~~~~~~~~~~~~~~~~~~~~-|

Guitar 1:
e|--------------------------------------------------------|
B|--------------------------------------------------------|
G|--------------------------------------------------------|
D|--------------------------------------------------------|
A|-/5-5--5--8-5---------8-5--0----------------------------|
E|--------------8-7--7----------3~~~~~~~~~~~~~~~~~~~~~~~~-|
Guitar 2:
e|--------------------------------------------------------|
B|----------------------------------------8-8-8-8-8-8-8-8-|
G|----------------------------------------7-7-7-7-7-7-7-7-|
D|--------------------------------------------------------|
A|--------------------------------------------------------|
E|--------------------------------------------------------|

Guitar 1:
e|--------------------------------------------------------|
B|--------------------------------------------------------|
G|--------------------------------------------------------|
D|--------------------------------------------------------|
A|-/5-5--5--8-5---------8-5--0----------------------------|
E|--------------8-7--7----------3~~~~~~~~~~~~~~~~~~~~~~~~-|

Guitar 1:
e|--------------------------------------------------------|
B|--------------------------------------------------------|
G|--------------------------------------------------------|
D|--------------------------------------------------------|
A|-/5-5--5--8-5---------8-5--0----------------------------|
E|--------------8-7--7----------3~~~~~~~~~~~~~~~~~~~~~~~~-|
Guitar 2:
e|--------------------------------------------------------|
B|----------------------------------------8-8-8-8-8-8-8-8-|
G|----------------------------------------7-7-7-7-7-7-7-7-|
D|--------------------------------------------------------|
A|--------------------------------------------------------|
E|--------------------------------------------------------|

Guitar 1:                                           Guitar 1:
e|--------------------------------------------|     e|--------------------------|
B|--------------------------------------------|     B|--------------------------|
G|-------------------------5----7-------------|     G|-6----4--2----------------|
D|-7--7--7--5-7--7--7-7--7-5----7----7--------|     D|-6----4--2----2--4--------|
A|-7--7--7--5-7--7--7-7--7-3----5----7--------|     A|-4----2--0----2--4--------|
E|-5--5--5--3-5--5--5-5--5-----------5--------| x2  E|--------------0--2--------| x4

Guitar 1:
e|--------------------------------------------------------|
B|--------------------------------------------------------|
G|--------------------------------------------------------|
D|--------------------------------------------------------|
A|-/5-5--5--8-5---------8-5--0----------------------------|
E|--------------8-7--7----------3~~~~~~~~~~~~~~~~~~~~~~~~-|

Guitar 1:
e|--------------------------------------------------------|
B|--------------------------------------------------------|
G|--------------------------------------------------------|
D|--------------------------------------------------------|
A|-/5-5--5--8-5---------8-5--0----------------------------|
E|--------------8-7--7----------3~~~~~~~~~~~~~~~~~~~~~~~~-|
Guitar 2:
e|--------------------------------------------------------|
B|----------------------------------------8-8-8-8-8-8-8-8-|
G|----------------------------------------7-7-7-7-7-7-7-7-|
D|--------------------------------------------------------|
A|--------------------------------------------------------|
E|--------------------------------------------------------|

Guitar 1:
e|--------------------------------------------------------|
B|--------------------------------------------------------|
G|--------------------------------------------------------|
D|--------------------------------------------------------|
A|-/5-5--5--8-5---------8-5--0----------------------------|
E|--------------8-7--7----------3~~~~~~~~~~~~~~~~~~~~~~~~-|

Guitar 1:
e|--------------------------------------------------------|
B|--------------------------------------------------------|
G|--------------------------------------------------------|
D|--------------------------------------------------------|
A|-/5-5--5--8-5---------8-5--0----------------------------|
E|--------------8-7--7----------3~~~~~~~~~~~~~~~~~~~~~~~~-|
Guitar 2:
e|--------------------------------------------------------|
B|----------------------------------------8-8-8-8-8-8-8-8-|
G|----------------------------------------7-7-7-7-7-7-7-7-|
D|--------------------------------------------------------|
A|--------------------------------------------------------|
E|--------------------------------------------------------|

Guitar 1:                                           Guitar 1:
e|--------------------------------------------|     e|--------------|
B|--------------------------------------------|     B|--------------|
G|-------------------------5----7-------------|     G|-6----4--2----|
D|-7--7--7--5-7--7--7-7--7-5----7----7--------|     D|-6----4--2----|
A|-7--7--7--5-7--7--7-7--7-3----5----7--------|     A|-4----2--0----|
E|-5--5--5--3-5--5--5-5--5-----------5--------| x4  E|--------------|


| /  slide up
| \  slide down
| h  hammer-on
| p  pull-off
| ~  vibrato
| +  harmonic
| x  Mute note
===============================================================================
Tap to rate this tab
# A B C D E F G H I J K L M N O P Q R S T U V W X Y Z