Song name
# A B C D E F G H I J K L M N O P Q R S T U V W X Y Z

City And Colour - The Grand Optimist tab

-----------------------------------------------------------------------------
                             City and Colour - Grand Optimist
-----------------------------------------------------------------------------
Tabbed by:Nick Rohla

Tuning:standard
solo was missing
e|---------------------------------------------------------------|
B|---------------------------------------------------------------|
G|--/14\11--14\9--9--7/9\7-4/7--14\11--14/16\14------------------|
D|----------------------------------------------14/16\14p12------|
A|----------------------------------------------------------14---|
E|---------------------------------------------------------------|

e|---------------------------------------------------------------|
B|--------15-----------------------------------------------------|
G|--14/16----16--------------------------------------------------|
D|--------------16-----------------------------------------------|
A|---------------------------------------------------------------|
E|---------------------------------------------------------------|
Tap to rate this tab
 
# A B C D E F G H I J K L M N O P Q R S T U V W X Y Z