Guitaretab - guitar tabs
Song name
# A B C D E F G H I J K L M N O P Q R S T U V W X Y Z

Cky - Flesh Into Gear tab



Intro X6
E|-----------------------------------------------------------------
B|-----------------------------------------------------------------
D|------------------------4-6-6-6-6-6------------------------------ 
G|-2-2-2-2-2--------------4-6-6-6-6-6--7-6---------7-6-------------
A|-2-2-2-2-2--------------2-4-4-4-4-4------7-7-4-7-----------------
E|-0-0-0-0-0--4p0-2p0-4p0------------------------------------------





Guitar 2
Intro X6
E|-----------------------------------------------------------------
B|-----------------------------------------------------------------
D|-----------------------(0)-6-6-6-6-6--6-6-6-6-6-------------------
G|-2-2-2-2-2--2-2-2-2--2- -(0)-6-6-6-6-6--6-6-6-6-6-------------------
A|-2-2-2-2-2--2-2-2-2--2-(0)-4-4-4-4-4--4-4-4-4-4-------------------
E|-0-0-0-0-0--0-0-0-0--0--------------------------------------------




Guitar 1
Bridge X4
E|-----------------------------------------------------------------
B|-----------------------------------------------------------------
D|------------------------4-6-6-6-6-6------------------------------ 
G|-2-2-2-2-2--------------4-6-6-6-6-6--7-6---------7-6-------------
A|-2-2-2-2-2--------------2-4-4-4-4-4------7-7-4-7-----------------
E|-0-0-0-0-0--4p0-2p0-4p0------------------------------------------

Guitar 2
Bridge X4
E|-----------------------------------------------------------------
B|-----------------------------------------------------------------
D|----------------------(0)-6-6-6-6-6--6-6-6-6-6-------------------
G|-2-2-2-2-2--2-2-2-2-2-(0)-6-6-6-6-6--6-6-6-6-6-------------------
A|-2-2-2-2-2--2-2-2-2-2(0)-4-4-4-4-4--4-4-4-4-4-------------------
E|-0-0-0-0-0--0-0-0-0-0--------------------------------------------



Guitar 1 & 2
Chorus X4
E|-----------------------------------------------------------------
B|-----------------------------------------------------------------
D|-----------------------------------------------------------------
G|-7-7-7-7-7--7-9-7-6-6-6-6-6--6-4-2-------------------------------
A|-7-7-7-7-7--7-9-7-6-6-6-6-6--6-4-2-------------------------------
E|-5-5-5-5-5--5-7-5-4-4-4-4-4--4-2-0-------------------------------


Guitar 1
Solo
E|-----------------------------------------------------------------
B|-----------------------------------------------------------------
D|-6-6--------------------4-4----------------4-6-6-6---------------
G|-6-6--6-4---4---4-6-4---4-4--6-4---4---4-6-----6-6---------------
A|-4-4------7---7-------7-2-2------7---7---------4-4---------------
E|-----------------------------------------------------------------

E|-----------------------------------------------------------------
B|-----------------------------------------------------------------
D|-------------------4-4----------------------2-2------------------
G|-6-4---4---4-6-4---4-4------2-4-2-------4---2-2------------------
A|-----7---7-------7-2-2--0-4-------4-2-0---4-0-0------------------
E|-----------------------------------------------------------------

E|-----------------------------------------------------------------
B|-----------------------------------------------------------------
D|-------------------4-4----------------4-6-6-6--------------------
G|-6-4---4---4-6-4---4-4--6-4---4---4-6-----6-6--------------------
A|-----7---7-------7-2-2------7---7---------4-4--------------------
E|-----------------------------------------------------------------

E|-----------------------------------------------------------------
B|-----------------------------------------------------------------
D|-------------------4-4----------------4-6-6-6--------------------
G|-6-4---4---4-6-4---4-4--6-4---4---4-6-----6-6--------------------
A|-----7---7-------7-2-2------7---7---------4-4--------------------
E|-----------------------------------------------------------------

E|-----------------------------------------------------------------
B|-----------------------------------------------------------------
D|-------------------4-4----------------------2-2------------------
G|-6-4---4---4-6-4---4-4------2-4-2-------4---2-2------------------
A|-----7---7-------7-2-2--0-4-------4-2-0---4-0-0------------------
E|-----------------------------------------------------------------

E|-----------------------------------------------------------------
B|-----------------------------------------------------------------
D|-------------------4-4----------------4-6-6-6--------------------
G|-6-4---4---4-6-4---4-4--6-4---4---4-6-----6-6--------------------
A|-----7---7-------7-2-2------7---7---------4-4--------------------
E|-----------------------------------------------------------------

E|-----------------------------------------------------------------
B|-----------------------------------------------------------------
D|-------------------4-4----------------4-6^-4---------------------
G|-6-4---4---4-6-4---4-4--6-4---4---4-6--------6-2-4---------------
A|-----7---7-------7-2-2------7---7------------------4-2-----------
E|-------------------------------------------------------4-2-0-----



Guitar 2
Along with the solo
E|-----------------------------------------------------------------
B|-----------------------------------------------------------------
D|-6-6--------------------4-4--------------------6-6---------------
G|-6-6--------------------4-4--------------------6-6---------------
A|-4-4--------------------2-2--------------------4-4---------------
E|-----------------------------------------------------------------

E|-----------------------------------------------------------------
B|-----------------------------------------------------------------
D|-------------------4-4----------------------2-2------------------
G|-------------------4-4----------------------2-2------------------
A|-------------------2-2----------------------0-0------------------
E|-----------------------------------------------------------------

E|-----------------------------------------------------------------
B|-----------------------------------------------------------------
D|-------------------4-4--------------------6-6--------------------
G|-------------------4-4--------------------6-6--------------------
A|-------------------2-2--------------------4-4--------------------
E|-----------------------------------------------------------------

E|-----------------------------------------------------------------
B|-----------------------------------------------------------------
D|-------------------4-4--------------------6-6--------------------
G|-------------------4-4--------------------6-6--------------------
A|-------------------2-2--------------------4-4--------------------
E|-----------------------------------------------------------------

E|-----------------------------------------------------------------
B|-----------------------------------------------------------------
D|-------------------4-4----------------------2-2------------------
G|-------------------4-4----------------------2-2------------------
A|-------------------2-2----------------------0-0------------------
E|-----------------------------------------------------------------

E|-----------------------------------------------------------------
B|-----------------------------------------------------------------
D|-------------------4-4--------------------6-6--------------------
G|-------------------4-4--------------------6-6--------------------
A|-------------------2-2--------------------4-4--------------------
E|-----------------------------------------------------------------

E|-----------------------------------------------------------------
B|-----------------------------------------------------------------
D|-------------------4-4-------------------------------------------
G|-------------------4-4-------------------------------------------
A|-------------------2-2-----------------------------4-2-----------
E|-------------------------------------------------------4-2-0-----


Guitar 1 & 2
Chorus X4
E|-----------------------------------------------------------------
B|-----------------------------------------------------------------
D|-----------------------------------------------------------------
G|-7-7-7-7-7--7-9-7-6-6-6-6-6--6-4-2-------------------------------
A|-7-7-7-7-7--7-9-7-6-6-6-6-6--6-4-2-------------------------------
E|-5-5-5-5-5--5-7-5-4-4-4-4-4--4-2-0-------------------------------




Guitar 1
Bridge X5
E|-----------------------------------------------------------------
B|-----------------------------------------------------------------
D|------------------------4-6-6-6-6-6------------------------------ 
G|-2-2-2-2-2--------------4-6-6-6-6-6--7-6---------7-6-------------
A|-2-2-2-2-2--------------2-4-4-4-4-4------7-7-4-7-----------------
E|-0-0-0-0-0--4p0-2p0-4p0------------------------------------------


Guitar 2
Bridge X5
E|-----------------------------------------------------------------
B|-----------------------------------------------------------------
D|----------------------(0)-6-6-6-6-6--6-6-6-6-6-------------------
G|-2-2-2-2-2--2-2-2-2-2-(0)-6-6-6-6-6--6-6-6-6-6-------------------
A|-2-2-2-2-2--2-2-2-2-2(0)-4-4-4-4-4--4-4-4-4-4-------------------
E|-0-0-0-0-0--0-0-0-0-0--------------------------------------------



Printable Version
[ Tab from: http://www.guitaretab.com/c/cky/25788.html ]
Related for Flesh Into Gear tab