Song name
# A B C D E F G H I J K L M N O P Q R S T U V W X Y Z

Cky - 96 Quite Bitter Beings tab

Help us improve GuitareTab! Take a short survey!
There were not any good tabs for this song so i made this plz comment

----------------------------------------------------------|
----------------------------------------------------------|
----------------------------------------------------------|
-----9------------9-10-9------------10/12-10-9-7-----9----|
-7-10---7-----7-10------10-9-7---10--------------10----10-|
-0------0-----0----------------8--------------------------|


----------------------------------------------------------|
----------------------------------------------------------|
----------------------------------------------------------|
-----9------------9-10-9------------10/12-10-9-7-----9----|
-7-10---7-----7-10------10-9-7---10--------------10----10-|
-0------0-----0----------------8--------------------------|

----------------------------------------------------------|
----------------------------------------------------------|
----------------------------------------------------------|
-----9------------9-10-9------------10/12-10-9-7-----9----|
-7-10---7-----7-10------10-9-7---10--------------10----10-|
-0------0-----0----------------8--------------------------|

----------------------------------------------------------|
----------------------------------------------------------|
----------------------------------------------------------|
-----9------------9-10-9------------10/12-10-9-7-----9----|
-7-10---7-----7-10------10-9-7---10--------------10----10-|
-0------0-----0----------------8--------------------------|

--------------------------|
--------------------------|
--------------------------|
-2--2--2------6--6--6-----|
-2--2--2------4--4--4-----|
-0--0--0----0-4--4--4-----|

--------------------------|
--------------------------|
--------------------------|
-2--2--2------6--6--6-----|
-2--2--2------4--4--4-----|
-0--0--0----0-4--4--4-----|

--------------------------|
--------------------------|
--------------------------|
-2--2--2------6--6--6-----|
-2--2--2------4--4--4-----|
-0--0--0----0-4--4--4-----|

--------------------------|
--------------------------|
--------------------------|
-2--2--2------6--6--6-----|
-2--2--2------4--4--4-----|
-0--0--0----0-4--4--4-----|

--------------------------|
--------------------------|
--------------------------|
-2--2--2------6--6--6-----|
-2--2--2------4--4--4-----|
-0--0--0----0-4--4--4-----|

--------------------------|
--------------------------|
--------------------------|
-2--2--2------6--6--6-----|
-2--2--2------4--4--4-----|
-0--0--0----0-4--4--4-----|

----------------------------------------------------------|
----------------------------------------------------------|
----------------------------------------------------------|
-----9------------9-10-9------------10/12-10-9-7-----9----|
-7-10---7-----7-10------10-9-7---10--------------10----10-|
-0------0-----0----------------8--------------------------|

----------------------------------------------------------|
----------------------------------------------------------|
----------------------------------------------------------|
-----9------------9-10-9------------10/12-10-9-7-----9----|
-7-10---7-----7-10------10-9-7---10--------------10----10-|
-0------0-----0----------------8--------------------------|

--------------------------|
--------------------------|
--------------------------|
-2--2--2------6--6--6-----|
-2--2--2------4--4--4-----|
-0--0--0----0-4--4--4-----|

--------------------------|
--------------------------|
--------------------------|
-2--2--2------6--6--6-----|
-2--2--2------4--4--4-----|
-0--0--0----0-4--4--4-----|

--------------------------|
--------------------------|
--------------------------|
-2--2--2------6--6--6-----|
-2--2--2------4--4--4-----|
-0--0--0----0-4--4--4-----|

--------------------------|
--------------------------|
--------------------------|
-2--2--2------6--6--6-----|
-2--2--2------4--4--4-----|
-0--0--0----0-4--4--4-----|

--------------------------|
--------------------------|
--------------------------|
-2--2--2------6--6--6-----|
-2--2--2------4--4--4-----|
-0--0--0----0-4--4--4-----|

e|---0-0-0-0-0-0-|
b|---0-0-0-0-0-0-|
g|---0-0-0-0-0-0-|
d|---9-9-9-9-7-7-|
a|---7-7-7-7-5-5-|
e|---0-0-0-0-0-0-|

e|---0-0-0-0-0-0-|
b|---0-0-0-0-0-0-|
g|---0-0-0-0-0-0-|
d|---9-9-9-9-7-7-|
a|---7-7-7-7-5-5-|
e|---0-0-0-0-0-0-|

e|---0-0-0-0-0-0-|
b|---0-0-0-0-0-0-|
g|---0-0-0-0-0-0-|
d|---9-9-9-9-7-7-|
a|---7-7-7-7-5-5-|
e|---0-0-0-0-0-0-|

e|---0-0-0-0-0-0-|
b|---0-0-0-0-0-0-|
g|---0-0-0-0-0-0-|
d|---9-9-9-9-7-7-|
a|---7-7-7-7-5-5-|
e|---0-0-0-0-0-0-|

e|---0-0-0-0-0-0-|
b|---0-0-0-0-0-0-|
g|---0-0-0-0-0-0-|
d|---9-9-9-9-7-7-|
a|---7-7-7-7-5-5-|
e|---0-0-0-0-0-0-|

e|---0-0-0-0-0-0-|
b|---0-0-0-0-0-0-|
g|---0-0-0-0-0-0-|
d|---9-9-9-9-7-7-|
a|---7-7-7-7-5-5-|
e|---0-0-0-0-0-0-|

e|---0-0-0-0-0-0-|
b|---0-0-0-0-0-0-|
g|---0-0-0-0-0-0-|
d|---9-9-9-9-7-7-|
a|---7-7-7-7-5-5-|
e|---0-0-0-0-0-0-|

e|---0-0-0-0-0-0-|
b|---0-0-0-0-0-0-|
g|---0-0-0-0-0-0-|
d|---9-9-9-9-7-7-|
a|---7-7-7-7-5-5-|
e|---0-0-0-0-0-0-|

----------------------------------------------------------|
----------------------------------------------------------|
----------------------------------------------------------|
-----9------------9-10-9------------10/12-10-9-7-----9----|
-7-10---7-----7-10------10-9-7---10--------------10----10-|
-0------0-----0----------------8--------------------------|

----------------------------------------------------------|
----------------------------------------------------------|
----------------------------------------------------------|
-----9------------9-10-9------------10/12-10-9-7-----9----|
-7-10---7-----7-10------10-9-7---10--------------10----10-|
-0------0-----0----------------8--------------------------|

1|-------------------------------------|----------------------------------|
2|-------------------------------------|----------------------------------|
3|-------------------------------------|----------------------------------|
4|--7-7-7--5-0--------5-5-5-5-0--------|-7-7-7-5-0-9-9-9--5-5-5-5-0-9-9-9-|
5|--5-5-5------2-2-2--3-3-3----2-2-2---|-5-5-5-----7-7-7--3-3-3-----7-7-7-|
6|-------------0-0-0-----------0-0-0---|----------------------------------|

e|---0-0-0-0-0-0-|
b|---0-0-0-0-0-0-|
g|---0-0-0-0-0-0-|
d|---9-9-9-9-7-7-|
a|---7-7-7-7-5-5-|
e|---0-0-0-0-0-0-|

e|---0-0-0-0-0-0-|
b|---0-0-0-0-0-0-|
g|---0-0-0-0-0-0-|
d|---9-9-9-9-7-7-|
a|---7-7-7-7-5-5-|
e|---0-0-0-0-0-0-|

e|---0-0-0-0-0-0-|
b|---0-0-0-0-0-0-|
g|---0-0-0-0-0-0-|
d|---9-9-9-9-7-7-|
a|---7-7-7-7-5-5-|
e|---0-0-0-0-0-0-|

e|---0-0-0-0-0-0-|
b|---0-0-0-0-0-0-|
g|---0-0-0-0-0-0-|
d|---9-9-9-9-7-7-|
a|---7-7-7-7-5-5-|
e|---0-0-0-0-0-0-|

e|---0-0-0-0-0-0-|
b|---0-0-0-0-0-0-|
g|---0-0-0-0-0-0-|
d|---9-9-9-9-7-7-|
a|---7-7-7-7-5-5-|
e|---0-0-0-0-0-0-|

e|---0-0-0-0-0-0-|
b|---0-0-0-0-0-0-|
g|---0-0-0-0-0-0-|
d|---9-9-9-9-7-7-|
a|---7-7-7-7-5-5-|
e|---0-0-0-0-0-0-|

e|---0-0-0-0-0-0-|
b|---0-0-0-0-0-0-|
g|---0-0-0-0-0-0-|
d|---9-9-9-9-7-7-|
a|---7-7-7-7-5-5-|
e|---0-0-0-0-0-0-|

e|---0-0-0-0-0-0-|
b|---0-0-0-0-0-0-|
g|---0-0-0-0-0-0-|
d|---9-9-9-9-7-7-|
a|---7-7-7-7-5-5-|
e|---0-0-0-0-0-0-|

1|-------------------------------------|----------------------------------|
2|-------------------------------------|----------------------------------|
3|-------------------------------------|----------------------------------|
4|--7-7-7--5-0--------5-5-5-5-0--------|-7-7-7-5-0-9-9-9--5-5-5-5-0-9-9-9-|
5|--5-5-5------2-2-2--3-3-3----2-2-2---|-5-5-5-----7-7-7--3-3-3-----7-7-7-|
6|-------------0-0-0-----------0-0-0---|----------------------------------|

----------------------------------------------------------|
----------------------------------------------------------|
----------------------------------------------------------|
-----9------------9-10-9------------10/12-10-9-7-----9----|
-7-10---7-----7-10------10-9-7---10--------------10----10-|
-0------0-----0----------------8--------------------------|

----------------------------------------------------------|
----------------------------------------------------------|
----------------------------------------------------------|
-----9------------9-10-9------------10/12-10-9-7-----9----|
-7-10---7-----7-10------10-9-7---10--------------10----10-|
-0------0-----0----------------8--------------------------|

----------------------------------------------------------|
----------------------------------------------------------|
----------------------------------------------------------|
-----9------------9-10-9------------10/12-10-9-7-----9----|
-7-10---7-----7-10------10-9-7---10--------------10----10-|
-0------0-----0----------------8--------------------------|

----------------------------------------------------------|
----------------------------------------------------------|
----------------------------------------------------------|
-----9------------9-10-9------------10/12-10-9-7-----9----|
-7-10---7-----7-10------10-9-7---10--------------10----10-|
-0------0-----0----------------8--------------------------|

----------------------------------------------------------|
----------------------------------------------------------|
----------------------------------------------------------|
-----9------------9-10-9------------10/12-10-9-7-----9----|
-7-10---7-----7-10------10-9-7---10--------------10----10-|
-0------0-----0----------------8--------------------------|

----------------------------------------------------------|
----------------------------------------------------------|
----------------------------------------------------------|
-----9------------9-10-9------------10/12-10-9-7-----9----|
-7-10---7-----7-10------10-9-7---10--------------10----10-|
-0------0-----0----------------8--------------------------|

----------------------------------------------------------|
----------------------------------------------------------|
----------------------------------------------------------|
-----9------------9-10-9------------10/12-10-9-7-----9----|
-7-10---7-----7-10------10-9-7---10--------------10----10-|
-0------0-----0----------------8--------------------------|

the end
any concerns email me at cole_zero_or_die@hotmail.com
Related for 96 Quite Bitter Beings tab