Song name
# A B C D E F G H I J K L M N O P Q R S T U V W X Y Z

Cky - Disengage The Simulator tab

Help us improve GuitareTab! Take a short survey!
Standard CKY Tuning (DGCFAD)-(low-high)

Band:Cky
Song:Disengage (Demo)
Album:Cky Volume 2 (Track 28,Disc 1)

/-slide (slash)
.-Palm mute (dot)

If you have ever heard this song,you know its very repetitive,So put 
the Riffs together where you should play them.

Riff 1
|---------------------------------|
|---------------------------------|
|---------------------------------|
|-----------5-----------5-----4---|
|---------5-----------5---5-2---5-|
|-3-3-3-3-----3-3-3-3-------------|
  . . . . .   . . . .

Riff 2
|-------------------------|
|-------------------------|
|-------------------------|
|-----5-5/7-7-----7-7/9-9-|
|-7-7---------5-5---------|
|-------------------------|
  . .         . .

Later on in the song,Riffs 1 and 2 are played with less palm muting.

Riff 3
|---------------------------------------|
|---------------------------------------|
|---------------------10-10-10---/12-12-|
|-----5-3-----8/7---7-------------------|
|-5-5-----5-8-----7-8-------------------|
|-3-3-----------------------------------|

Riff 4
|-------------------------------------------|
|-------------------------------------------|
|-------------------------10-10-10---/12-12-|
|-----5-5-----8-7/5-----7-------------------|
|---5-----5/8-------7/8---------------------|
|-3-----------------------------------------|

Riff 5
|-------------------------|
|-------------------------|
|-------------------------|
|-----3-5----------3------|
|---5-------5---5----1--3-|
|-3-------3---3-----------|

Riff 6
|---------------------------------|
|---------------------------------|
|---------------------------------|
|-----3-5---------3---------------|
|---5-------5---5---1-3-0-----1-3-|
|-3-------3---3-----------3-1-----|

Riff 7
|----------------------------------------|
|----------------------------------------|
|----10----------------------------------|
|----------------11----10-------------13-|
|-11----11-12-13----13----13-12-11-12----|
|----------------------------------------|

Riff 8
|----------------------------------|
|----------------------------------|
|----10----------------------------|
|----------------11----10----------|
|-11----11-12-13----13----13-12-11-|
|----------------------------------|

Tabbed December 27,2005-January 2,2006 by Kevin Johnson (elementos)
Related for Disengage The Simulator tab