Song name
# A B C D E F G H I J K L M N O P Q R S T U V W X Y Z

Cky - Promiscuous Daughter tab

CKY - Promiscuous Daughter

This isn't really a solo. It's like the bridge for the song or something.
You can recognize it as the really bad ass guitar riff. 


E ------------------------------------------
B ------------------------------------------
G ------------------------------------------
D ------------------------------------------
A -------7--4-------------------------------
E ----0-------7-0---3--5--5--0--0-----------


E ------------------------------------------
B ------------------------------------------
G ------------------------------------------
D ------------------------------------------
A -------7--4-------------------------------
E ----0--------7-0---3--5-3-5--0------------


Yeah, the timing is probably off.
Tap to rate this tab
# A B C D E F G H I J K L M N O P Q R S T U V W X Y Z