Song name
# A B C D E F G H I J K L M N O P Q R S T U V W X Y Z

Clash - Death Or Glory tab

The Clash
Death or Glory
By Dan Priestley


Intro part one played quiet, acoustic/Clean channel

e-2-2-2-2-2-2-2-2--x-x-x-x-x-x-x-x--3-3-3-3-3-3-3-3--2-2-2-2-2-2-2-2-|
B-3-3-3-3-3-3-3-3--2-2-2-2-2-2-2-2--0-0-0-0-0-0-0-0--3-3-3-3-3-3-3-3-|
G-2-2-2-2-2-2-2-2--2-2-2-2-2-2-2-2--0-0-0-0-0-0-0-0--2-2-2-2-2-2-2-2-|
D-0-0-0-0-0-0-0-0--2-2-2-2-2-2-2-2--0-0-0-0-0-0-0-0--0-0-0-0-0-0-0-0-|
A-x-x-x-x-x-x-x-x--0-0-0-0-0-0-0-0--2-2-2-2-2-2-2-2--x-x-x-x-x-x-x-x-|
E-x-x-x-x-x-x-x-x--x-x-x-x-x-x-x-x--3-3-3-3-3-3-3-3--x-x-x-x-x-x-x-x-|

e-2-2-2-2-2-2-2-2--x-x-x-x-x-x-x-x--3-3-3-3-3-3-3-3--2-2-2-2-2-2-2-2-|
B-3-3-3-3-3-3-3-3--2-2-2-2-2-2-2-2--0-0-0-0-0-0-0-0--3-3-3-3-3-3-3-3-|
G-2-2-2-2-2-2-2-2--2-2-2-2-2-2-2-2--0-0-0-0-0-0-0-0--2-2-2-2-2-2-2-2-|
D-0-0-0-0-0-0-0-0--2-2-2-2-2-2-2-2--0-0-0-0-0-0-0-0--0-0-0-0-0-0-0-0-|
A-x-x-x-x-x-x-x-x--0-0-0-0-0-0-0-0--2-2-2-2-2-2-2-2--x-x-x-x-x-x-x-x-|
E-x-x-x-x-x-x-x-x--x-x-x-x-x-x-x-x--3-3-3-3-3-3-3-3--x-x-x-x-x-x-x-x-|

Second part of the intro is played louder or on overdrive channel.  This
section can be played on normal chords but power chords give it a raw
punk rock sound.  If you would rather use normal chords then have labeled
each power chord below.

e------------------------------------------------------------------|
B-------0-0-0--0-----------0-0--0--------0-0-0--0-----------0-0--0-|
G-0-0---7-7-7--7---0-0---0-7-7--7--0-0---7-7-7--7---0-0---0-7-7--7-|
D-5-5---7-7-7--7---7-7---7-7-7--7--5-5---7-7-7--7---7-7---7-7-7--7-|
A-5-5---5-5-5--5---7-7---7-5-5--5--5-5---5-5-5--5---7-7---7-5-5--5-|
E-3-3---3----------5-5---5---------3-3---3----------5-5---5--------|
  G G   G D D  D   A A   A D D  D  G G   G D D  D   A A   A D D  D

Verse 1

e---------------------------------------|
B-0--0-00-0------------------------0----|
G-7--7-77-7---0--0--0--0---0----0--7--0-|
D-7--7-77-7---7--7--7--7---5----5--7--7-|
A-5--5-55-5---7--7--7--7---5----5--5--7-|
E-------------5--5--5--5---3----3-----5-|

Now every cheap hood makes a bargain with world
Ends up making payments on a sofa or a girl

e---------------------------------------|
B-0--0-00-0------------------------0----|
G-7--7-77-7---0--0--0--0---0----0--7--0-|
D-7--7-77-7---7--7--7--7---5----5--7--7-|
A-5--5-55-5---7--7--7--7---5----5--5--7-|
E-------------5--5--5--5---3----3-----5-|

Love and hate tattooed cross the nuckles of each hand
Hands that slap his kids around cus they don't understand
How!

Chorus

e------------------------------------------------------------------|
B-------0-0-0--0-----------0-0--0--------0-0-0--0-----------0-0--0-|
G-0-0---7-7-7--7---0-0---0-7-7--7--0-0---7-7-7--7---0-0---0-7-7--7-|
D-5-5---7-7-7--7---7-7---7-7-7--7--5-5---7-7-7--7---7-7---7-7-7--7-|
A-5-5---5-5-5--5---7-7---7-5-5--5--5-5---5-5-5--5---7-7---7-5-5--5-|
E-3-3---3----------5-5---5---------3-3---3----------5-5---5--------|

Death or Glory becomes just another story
Death or Glory becomes just another story

Verse 2

Now every gimmick-hungry yob digging gold from rock-n-roll
Grabs the mike to tell us he'll die before he's old

e---------------------------------------|
B-0--0-00-0------------------------0----|
G-7--7-77-7---0--0--0--0---0----0--7--0-|
D-7--7-77-7---7--7--7--7---5----5--7--7-|
A-5--5-55-5---7--7--7--7---5----5--5--7-|
E-------------5--5--5--5---3----3-----5-|

But I believe in this and it's been tested by research
He who fucks nuns will later join the church

e---------------------------------------|
B-0--0-00-0------------------------0----|
G-7--7-77-7---0--0--0--0---0----0--7--0-|
D-7--7-77-7---7--7--7--7---5----5--7--7-|
A-5--5-55-5---7--7--7--7---5----5--5--7-|
E-------------5--5--5--5---3----3-----5-|

Chorus

e------------------------------------------------------------------|
B-------0-0-0--0-----------0-0--0--------0-0-0--0-----------0-0--0-|
G-0-0---7-7-7--7---0-0---0-7-7--7--0-0---7-7-7--7---0-0---0-7-7--7-|
D-5-5---7-7-7--7---7-7---7-7-7--7--5-5---7-7-7--7---7-7---7-7-7--7-|
A-5-5---5-5-5--5---7-7---7-5-5--5--5-5---5-5-5--5---7-7---7-5-5--5-|
E-3-3---3----------5-5---5---------3-3---3----------5-5---5--------|

Death or Glory becomes just another story
Death or Glory becomes just another story

Bridge 1

e-2-2-2-2-2-2---x-x-x-x-x-x---3-3-3-3-3-3---2-2-2-2-2-2-|
B-3-3-3-3-3-3---2-2-2-2-2-2---0-0-0-0-0-0---3-3-3-3-3-3-|
G-2-2-2-2-2-2---2-2-2-2-2-2---0-0-0-0-0-0---2-2-2-2-2-2-|
D-0-0-0-0-0-0---2-2-2-2-2-2---0-0-0-0-0-0---0-0-0-0-0-0-|
A-x-x-x-x-x-x---0-0-0-0-0-0---2-2-2-2-2-2---x-x-x-x-x-x-|
E-x-x-x-x-x-x---x-x-x-x-x-x---3-3-3-3-3-3---x-x-x-x-x-x-|

Whaah haaah haaah haaah haaah haaah haaah
whaah haaah haaah haaah haaah haaah haaah

e-2-2-2-2-2-2---x-x-x-x-x-x---3-3-3-3-3-3---2-2-2-2-2-2-|
B-3-3-3-3-3-3---2-2-2-2-2-2---0-0-0-0-0-0---3-3-3-3-3-3-|
G-2-2-2-2-2-2---2-2-2-2-2-2---0-0-0-0-0-0---2-2-2-2-2-2-|
D-0-0-0-0-0-0---2-2-2-2-2-2---0-0-0-0-0-0---0-0-0-0-0-0-|
A-x-x-x-x-x-x---0-0-0-0-0-0---2-2-2-2-2-2---x-x-x-x-x-x-|
E-x-x-x-x-x-x---x-x-x-x-x-x---3-3-3-3-3-3---x-x-x-x-x-x-|

Deal with the downside, they say hello
You say ok, but don't wanna play the show

e-2-2-2-2-2-2---x-x-x-x-x-x---3-3-3-3-3-3---2-2-2-2-2-2-|
B-3-3-3-3-3-3---2-2-2-2-2-2---0-0-0-0-0-0---3-3-3-3-3-3-|
G-2-2-2-2-2-2---2-2-2-2-2-2---0-0-0-0-0-0---2-2-2-2-2-2-|
D-0-0-0-0-0-0---2-2-2-2-2-2---0-0-0-0-0-0---0-0-0-0-0-0-|
A-x-x-x-x-x-x---0-0-0-0-0-0---2-2-2-2-2-2---x-x-x-x-x-x-|
E-x-x-x-x-x-x---x-x-x-x-x-x---3-3-3-3-3-3---x-x-x-x-x-x-|

Now all your thinking was it death or glory now
Playin the peice for pay surely its better now

Chorus

e------------------------------------------------------------------|
B-------0-0-0--0-----------0-0--0--------0-0-0--0-----------0-0--0-|
G-0-0---7-7-7--7---0-0---0-7-7--7--0-0---7-7-7--7---0-0---0-7-7--7-|
D-5-5---7-7-7--7---7-7---7-7-7--7--5-5---7-7-7--7---7-7---7-7-7--7-|
A-5-5---5-5-5--5---7-7---7-5-5--5--5-5---5-5-5--5---7-7---7-5-5--5-|
E-3-3---3----------5-5---5---------3-3---3----------5-5---5--------|

Death or Glory becomes just another story
Death or Glory becomes just another story

Verse 3

In every dingy basement on every dingy street
Every dragging handclap over every dragging beat

e---------------------------------------|
B-0--0-00-0------------------------0----|
G-7--7-77-7---0--0--0--0---0----0--7--0-|
D-7--7-77-7---7--7--7--7---5----5--7--7-|
A-5--5-55-5---7--7--7--7---5----5--5--7-|
E-------------5--5--5--5---3----3-----5-|

It's just the beat of time, the beat that must go on
If you've been trying for years, we already heard your song

e---------------------------------------|
B-0--0-00-0------------------------0----|
G-7--7-77-7---0--0--0--0---0----0--7--0-|
D-7--7-77-7---7--7--7--7---5----5--7--7-|
A-5--5-55-5---7--7--7--7---5----5--5--7-|
E-------------5--5--5--5---3----3-----5-|

Chorus

e------------------------------------------------------------------|
B-------0-0-0--0-----------0-0--0--------0-0-0--0-----------0-0--0-|
G-0-0---7-7-7--7---0-0---0-7-7--7--0-0---7-7-7--7---0-0---0-7-7--7-|
D-5-5---7-7-7--7---7-7---7-7-7--7--5-5---7-7-7--7---7-7---7-7-7--7-|
A-5-5---5-5-5--5---7-7---7-5-5--5--5-5---5-5-5--5---7-7---7-5-5--5-|
E-3-3---3----------5-5---5---------3-3---3----------5-5---5--------|

Death or Glory becomes just another story
Death or Glory becomes just another story

BRIDGE 2

We're gonna march a long way, we're gonna travel a long time
We're gonna travel over mountains, we're gonna travel over seas

e-2-2-2-2-2-2---x-x-x-x-x-x---3-3-3-3-3-3---2-2-2-2-2-2-|
B-3-3-3-3-3-3---2-2-2-2-2-2---0-0-0-0-0-0---3-3-3-3-3-3-|
G-2-2-2-2-2-2---2-2-2-2-2-2---0-0-0-0-0-0---2-2-2-2-2-2-|
D-0-0-0-0-0-0---2-2-2-2-2-2---0-0-0-0-0-0---0-0-0-0-0-0-|
A-x-x-x-x-x-x---0-0-0-0-0-0---2-2-2-2-2-2---x-x-x-x-x-x-|
E-x-x-x-x-x-x---x-x-x-x-x-x---3-3-3-3-3-3---x-x-x-x-x-x-|

We're gonna fight you brother, we're gonna fight 'til you lose
We're gonna raise trouble, we're gonna raise hell
We're gonna fight you brother, we're gonna raise hell

e-2-2-2-2-2-2---x-x-x-x-x-x---3-3-3-3-3-3---2-2-2-2-2-2-|
B-3-3-3-3-3-3---2-2-2-2-2-2---0-0-0-0-0-0---3-3-3-3-3-3-|
G-2-2-2-2-2-2---2-2-2-2-2-2---0-0-0-0-0-0---2-2-2-2-2-2-|
D-0-0-0-0-0-0---2-2-2-2-2-2---0-0-0-0-0-0---0-0-0-0-0-0-|
A-x-x-x-x-x-x---0-0-0-0-0-0---2-2-2-2-2-2---x-x-x-x-x-x-|
E-x-x-x-x-x-x---x-x-x-x-x-x---3-3-3-3-3-3---x-x-x-x-x-x-|

Chorus

e------------------------------------------------------------------|
B-------0-0-0--0-----------0-0--0--------0-0-0--0-----------0-0--0-|
G-0-0---7-7-7--7---0-0---0-7-7--7--0-0---7-7-7--7---0-0---0-7-7--7-|
D-5-5---7-7-7--7---7-7---7-7-7--7--5-5---7-7-7--7---7-7---7-7-7--7-|
A-5-5---5-5-5--5---7-7---7-5-5--5--5-5---5-5-5--5---7-7---7-5-5--5-|
E-3-3---3----------5-5---5---------3-3---3----------5-5---5--------|

Death or Glory becomes just another story
Death or Glory becomes just another story
Tap to rate this tab
 
# A B C D E F G H I J K L M N O P Q R S T U V W X Y Z