Song name
# A B C D E F G H I J K L M N O P Q R S T U V W X Y Z

Classical - Tchaikovsky - Swan Lake tab

Peter ILyich Tchaikovsky - Swan Lake Theme
Tabbed By: David
EMail: dave_caveman_@hotmail.com


THIS SONG WAS WRITTEN BY PETER ILyich Tchaikovsky AND IS CALLED SWAN
LAKE THEME. IT IS PRETTY OLD (CLASSICAL) BUT IT SOUNDS GOOD. GIVE IT 
A GO AND SEE FOR YOURSELF. ITS A SLOW SONG SO PLAY IT SLOWLY.

E-0----------------|-0-------0-------|-0--------------|
B-------------0-1-3|------1--------1-|--------1------1|
G----------2-------|-----------------|------2----2----|
D------2---3-------|----2-----2---2--|----2--------3--|    
A-0----------------|-0---------------|-0------0-------|
E------------------|-----------------|----------------|

E------------------|-0---------------|-0-------0------|
B------------3-1-0-|----------0--1--3|-------1-------1|
G-2----------------|-----0--2--------|----------------|
D-----2----3---3---|--------4----3---|-----2---2---2--|
A-0----------------|-0---------------|-0--------------|
E------------------|-----------------|----------------|

E-0----------------|-----------------|-----------0--1-|
B----------1------1|-----------------|-0--1--3--------|
G--------2----2----|-2----------2----|-0--------------|
D------2--------3--|------2----------|-------3--------|
A-0--------0-------|----------0------|----------------|
E------------------|-----------------|----------------|

E--3-----1--0------|-----------------|----------------|
B--0---------------|-----------------|-0---------1-0--|
G----------------0-|-2-----0---0-2---|-------2-------2|
D--2-----------3---|---------3-------|-----1---2------|
A------------------|-----------------|----------------|
E------------------|----1------------|----------------|

E--------------0--1|-3------1-0------|------1---------|
B--0---1---3-------|-----0-----------|----3-------1---|
G------------------|-----0---------0-|--2----0-----0-2|
D----0---0---0----0|---2---------3---|---------3------|
A------------------|-----------------|----------------|
E--3-------1-------|-0---------------|----------------|

E------1-----------|-----2------4----||-0-------------|
B----3-------3-----|---4------3------||-1-------------|
G--3---------3---3-|-4------4-------.||-2-------------|
D--------3-0---3---|------4--------2.||---------------|
A------------------|-----------------||---------0-----|
E------------------|-----------------||---------------|


I HOPE THAT YOU ENJOY THIS CLASICAL PIECE. IF U HAVE ANYTHING TO SAY
TO ME MY EMAIL IS dave_caveman_@hotmail.com
Tap to rate this tab
# A B C D E F G H I J K L M N O P Q R S T U V W X Y Z