Guitaretab - guitar tabs
Song name
# A B C D E F G H I J K L M N O P Q R S T U V W X Y Z

Cloud Cult - Car Crash tab

Car Crash

e|--5---3---0---1----------0---0---1---1--------------------------------|
B|-6-6-5-5-2-2-3-3[4x]---2-2-2-2-3-3-3-3[2x]-2--5-/10-----------------|
G|----------------------------------------------------------------------|
D|----------------------------------------------------------------------|
A|----------------------------------------------------------------------|
E|----------------------------------------------------------------------|
 Repeat but play first riff [2x] on repeat and end with

e|---------------------------------------------------------------------|
B|---------------------------------------------------------------------|
G|--0------------------------------------------------------------------|
D|-----2-2h3 0---------------------------------------------------------|
A|---------------------------------------------------------------------|
E|---------------------------------------------------------------------|
[ Tab from: http://www.guitaretab.com/c/cloud-cult/143060.html ]
Then this is the distortion part
e|---------------------------------------------------------------------|
B|--------3------------------------------------------------------------|
G|-----2---------------------------------------------------------------|
D|---0-----------------------------------------------------------------|
A|--0--------1-2-3-----------------------------------------------------|
E|-----------------1-2-3-----------------------------------------------|

This part is basically the same as the intro line but it's all slides and probably not 
guitar but you can play it like this.
e|---------------------------------------------------------------------|
B|---------------------------------------------------------------------|
G|--10-10/14-10--9-9/12-9--6-6/9-6-7-7/10-7----------------------------|
D|---------------------------------------------------------------------|
A|---------------------------------------------------------------------|
E|---------------------------------------------------------------------|
Related for Car Crash tab