Song name
# A B C D E F G H I J K L M N O P Q R S T U V W X Y Z

Cloud Cult - Start New tab

Start New
e|---------------------------------------------------------------------|
B|---------------------------------------------------------------------|
G|-----------2---------------------------------------------------------|
D|-3---------2---------------------------------------------------------|
A|-3---------0---------------------------------------------------------|
E|-1-------------------------------------------------------------------|

e|---------------------------------------------------------------------|
B|---------------------------------------------------------------------|
G|--5-------------7-----------10---[2nd time]--------------------------|
D|--5-------------7-----------10-------------3------5------------------|
A|--3-------------5-----------8--------------3------5------------------|
E|-------------------------------------------1------3------------------|
Tap to rate this tab
# A B C D E F G H I J K L M N O P Q R S T U V W X Y Z