Song name
# A B C D E F G H I J K L M N O P Q R S T U V W X Y Z

Coldplay - Im My Place tab

Tabbed By : Stuart Bowers 
Title: In My Place
Artist: Coldplay
Album: A Rush Of Blood To The Head

e  12------------12----------------------------9-------------9--------------------------------------------------------
B  -----------------------------------  12--------------12---------------------------------------------------------------
G  -------9------------9------------------------------------------------X 2--------------------------------------------
D  -----------------------------------------------------------------------------------------------------------------------
A  -----------------------------------------------------------------------------------------------------------------------
E  -----------------------------------------------------------------------------------------------------------------------

e  12------------12--------------------------9------------9-----------------------------------------------------------
B  -------------------------------(14)----12------------12----(10)--------------------------------------------------
G  -------9------------9---------------------------------------------------------X-2----------------------------------
D  -----------------------------------------------------------------------------------------------------------------------
A  -----------------------------------------------------------------------------------------------------------------------
E  -----------------------------------------------------------------------------------------------------------------------
 
Capo On The 2nd Fret!!

G     G/F#
In my place
Bm
In my place
      D                     G
Were lines that I couldn't change
       G/F#     Bm     D
I was lost, oh yeah

G      G/F#
I was lost
Bm
I was lost
         D                    G
Crossed lines I shouldn't of crossed
       G/F#     Bm     D
I was lost, oh yeah

C         G         D            C
Yeah, how long must you wait for him?
          G         D           C
Yeah, how long must you pay for him?
          G         D            C      D
Yeah, how long must you wait for him?

The Rest of The Lyrics......

I was scared
I was scared
Tired and underprepared
But I wait for you

If you go
If you go
Leave me down here on my own
And I wait for you

Yeah, how long must you wait for him?
Yeah, how long must you pay for him?
Yeah, how long must you wait for him?

Please, please, please
Come on and sing to me, to me, me
Come on and sing it out, out, out
Come on and sing it now, now, now
Come on and sing it

In my place
In my place
Were lines I couldn't change
I was lost, oh yeah
Oh yeah

G - 320033
G/F# - 2x0033
Bm - x24432
D - xx0232
C - x32010
Tap to rate this tab
 
# A B C D E F G H I J K L M N O P Q R S T U V W X Y Z