Song name
# A B C D E F G H I J K L M N O P Q R S T U V W X Y Z

Coldplay - Fix You tab

Hey this is my first tab, it was originaly piano music then I put it into guitar 
so hope you like it.
The two 6's on e and a,
The 6 and 0 on d and e,
The three 1's on b,g and d,
The 1 on d and 3 on a,
Are ment to be played together I just couldn't get them exactly under each other.


e----------------------------------------------------------------------|
b----------------------------------------------------------------------|
g-------0--0---------------------------------0--0--0-------------------|
d-------------1-------1--1--0-------------------------1----1--1--1--0--|
a--1--1---------1--1-----------3------1--1--------------1--------------|
e----------------------------------6-----------------------------------|

e----------------------------------------------------------------------|
b----------------------------------------------------------------------|
g------------0-------------------------------0--3----------------0-----|
d---------------1----1--1--0----------1--3--------1--------------------|
a--3----1--1-------1-----------3----1-----------------3-----1--1-------|
e----6---------------------------6-----------------------6-------------|

e-----------------------------------------------------------------------|
b-----------------------------------------------------------------------|
g-----0--------------------------0-----0--0--0--1--0--------------------|
d-------1---1--1--0------0----------------------------3--3--1----0------|
a--6------1----------3------1--1---6------------------------------------|
e--6---------------------6----------6-----------------------------6-----|

e-----------------------------------------------------------------------|
b---------------------------1------------------------------1------------|
g----------0--3-------------1--1--0-----------------------1--1--0-------|
d----1--3--------1---1--0--1---------3--1--0----------1--1--------------|
a--1-----------------3------------------------3--1--3-------------------|
e------------------------6----------------------------------------------|

e------------------------------------------------------------------------|
b--------------------1----------------------------------------4----------|
g--------------------1----1--0---------------------0------0--------------|
d--3--1--0-------1--1-----------3--1--0--------1----1--------------------|
a-----------3--1--------------------------3--1-----------6---------------|
e-----------------------4------------------------------------------------|

e-----------------------------------------------------------------------|
b------2-------4---------2----------------------------------------------|
g----0-----0------------------------------------------------------------|
d----------------------3------------------------------------------------|
a-------3---------------------------------------------------------------|
e--3---------------6----------------------------------------------------|

This is just repeated throught the song
Tap to rate this tab
# A B C D E F G H I J K L M N O P Q R S T U V W X Y Z