Song name
# A B C D E F G H I J K L M N O P Q R S T U V W X Y Z

Collective Soul - December tab

Intro
e|---------3-------------3---------|
B|---3---3---3-----3---3---3-------|
G|-----0-------0-----0-------0-----|
D|---------------------------------| 
A|---------------------------------|
E|-3-------------1-----------------|


e|---------3-----------------------|
B|---3---3---3-----3---------------|
G|-----0-------0-----0-------------|
D|---------------------------------| 
A|-3-------------1-----1-2---------|
E|-------------------------3-------|

This is played just about through out the whole song.
Tap to rate this tab
# A B C D E F G H I J K L M N O P Q R S T U V W X Y Z