Song name
# A B C D E F G H I J K L M N O P Q R S T U V W X Y Z

Collective Soul - Hollywood tab

-----------------------------------------------------------------------------
		                  
                  Hollywood - Collective Soul (GUITAR)
            
-----------------------------------------------------------------------------
Tabbed by: Scotto10

Tuning: Tune down one full step

=============================================================================

      
Guitar 1



     E  E  H        Q       E  E  Q    E  E  Q       E  E  H        Q     
D||--2--2----------------|-------------3--3-------|--2--2----------------|
A||--3--3----------------|-------------3--3-------|--3--3----------------|
F||--2--2----------------|--2--2-------0--0-------|--2--2----------------|
C||--0--0----------------|--2--2-------0--0-------|--0--0----------------|
G||----------------------|--0--0-------2--2-------|----------------------|
D||----------------------|-------------3--3-------|----------------------|


  E  E  Q    E  E  Q       E  E  H        Q       E  E  Q    E  E  Q     
-------------3--3-------|--2--2----------------|-------------3--3-------|
-------------3--3-------|--3--3----------------|-------------3--3-------|
--2--2-------0--0-------|--2--2----------------|--2--2-------0--0-------|
--2--2-------0--0-------|--0--0----------------|--2--2-------0--0-------|
--0--0-------2--2-------|----------------------|--0--0-------2--2-------|
-------------3--3-------|----------------------|-------------3--3-------|


                                                  PM PM PM PM PM PM PM PM  
  E  E  H        Q       E  E  Q    E  E  Q       E  E  E  E  E  E  E  E   
--2--2----------------|-------------3--3-------|--2--2--2--2--2--2--2--0--|
--3--3----------------|-------------3--3-------|--3--3--3--3--3--3--3--3--|
--2--2----------------|--2--2-------0--0-------|--------------------------|
--0--0----------------|--2--2-------0--0-------|--0--0--0--0--0--0--0--0--|
----------------------|--0--0-------2--2-------|--------------------------|
----------------------|-------------3--3-------|--------------------------|


  PM PM PM PM PM PM PM PM    PM PM PM PM PM PM PM PM  
  E  E  E  E  E  E  E  E     E  E  E  E  E  E  E  E   
--0--0--0--0--3--3--3--0--|--2--2--2--2--2--2--2--0--|
--3--3--3--3--3--3--3--3--|--3--3--3--3--3--3--3--3--|
--2--2--2--2--0--0--0--0--|--------------------------|
--0--0--0--0--------------|--0--0--0--0--0--0--0--0--|
--------------------------|--------------------------|
--------------------------|--------------------------|


  PM PM PM PM PM PM PM PM    PM PM PM PM PM PM PM PM  
  E  E  E  E  E  E  E  E     E  E  E  E  E  E  E  E   
--0--0--0--0--3--3--3--0--|--2--2--2--2--2--2--2--0--|
--3--3--3--3--3--3--3--3--|--3--3--3--3--3--3--3--3--|
--2--2--2--2--0--0--0--0--|--------------------------|
--0--0--0--0--------------|--0--0--0--0--0--0--0--0--|
--------------------------|--------------------------|
--------------------------|--------------------------|


  PM PM PM PM PM PM PM PM    PM PM PM PM PM PM PM PM  
  E  E  E  E  E  E  E  E     E  E  E  E  E  E  E  E   
--0--0--0--0--3--3--3--0--|--2--2--2--2--2--2--2--0--|
--3--3--3--3--3--3--3--3--|--3--3--3--3--3--3--3--3--|
--2--2--2--2--0--0--0--0--|--------------------------|
--0--0--0--0--------------|--0--0--0--0--0--0--0--0--|
--------------------------|--------------------------|
--------------------------|--------------------------|


  PM PM PM PM PM PM PM PM                             
  E  E  E  E  E  E  E  E     E  E  E  E  E  E  E  E   
--0--0--0--0--3--3--3--0--|--2--2--2--2--2--2--2--2--|
--3--3--3--3--3--3--3--3--|--3--3--3--3--3--3--3--3--|
--2--2--2--2--0--0--0--0--|--2--2--2--2--2--2--2--2--|
--0--0--0--0--------------|--0--0--0--0--0--0--0--0--|
--------------------------|--------------------------|
--------------------------|--------------------------|


  E  E  E  E  E  E  E  E     E  E  E  E  E  E  E  E   
--------------3--3--3--3--|--2--2--2--2--2--2--2--2--|
--------------3--3--3--3--|--3--3--3--3--3--3--3--3--|
--2--2--2--2--0--0--0--0--|--2--2--2--2--2--2--2--2--|
--2--2--2--2--0--0--0--0--|--0--0--0--0--0--0--0--0--|
--0--0--0--0--2--2--2--2--|--------------------------|
--------------3--3--3--3--|--------------------------|


  E  E  E  E  E  E  E  E     E  E  E  E  E  E  E  E   
--------------3--3--3--3--|--2--2--2--2--2--2--2--2--|
--------------3--3--3--3--|--3--3--3--3--3--3--3--3--|
--2--2--2--2--0--0--0--0--|--2--2--2--2--2--2--2--2--|
--2--2--2--2--0--0--0--0--|--0--0--0--0--0--0--0--0--|
--0--0--0--0--2--2--2--2--|--------------------------|
--------------3--3--3--3--|--------------------------|


  E  E  E  E  E  E  E  E     E  E  E  E  E  E  E  E   
--------------3--3--3--3--|--2--2--2--2--2--2--2--2--|
--------------3--3--3--3--|--3--3--3--3--3--3--3--3--|
--2--2--2--2--0--0--0--0--|--2--2--2--2--2--2--2--2--|
--2--2--2--2--0--0--0--0--|--0--0--0--0--0--0--0--0--|
--0--0--0--0--2--2--2--2--|--------------------------|
--------------3--3--3--3--|--------------------------|


                             PM PM PM PM PM PM PM PM  
  E  E  E  E  E  E  E  E     E  E  E  E  E  E  E  E   
--------------3--3--3--3--|--2--2--2--2--2--2--2--0--|
--------------3--3--3--3--|--3--3--3--3--3--3--3--3--|
--2--2--2--2--0--0--0--0--|--------------------------|
--2--2--2--2--0--0--0--0--|--0--0--0--0--0--0--0--0--|
--0--0--0--0--2--2--2--2--|--------------------------|
--------------3--3--3--3--|--------------------------|


  PM PM PM PM PM PM PM PM    PM PM PM PM PM PM PM PM  
  E  E  E  E  E  E  E  E     E  E  E  E  E  E  E  E   
--0--0--0--0--3--3--3--0--|--2--2--2--2--2--2--2--0--|
--3--3--3--3--3--3--3--3--|--3--3--3--3--3--3--3--3--|
--2--2--2--2--0--0--0--0--|--------------------------|
--0--0--0--0--------------|--0--0--0--0--0--0--0--0--|
--------------------------|--------------------------|
--------------------------|--------------------------|


  PM PM PM PM PM PM PM PM    PM PM PM PM PM PM PM PM  
  E  E  E  E  E  E  E  E     E  E  E  E  E  E  E  E   
--0--0--0--0--3--3--3--0--|--2--2--2--2--2--2--2--0--|
--3--3--3--3--3--3--3--3--|--3--3--3--3--3--3--3--3--|
--2--2--2--2--0--0--0--0--|--------------------------|
--0--0--0--0--------------|--0--0--0--0--0--0--0--0--|
--------------------------|--------------------------|
--------------------------|--------------------------|


  PM PM PM PM PM PM PM PM    PM PM PM PM PM PM PM PM  
  E  E  E  E  E  E  E  E     E  E  E  E  E  E  E  E   
--0--0--0--0--3--3--3--0--|--2--2--2--2--2--2--2--0--|
--3--3--3--3--3--3--3--3--|--3--3--3--3--3--3--3--3--|
--2--2--2--2--0--0--0--0--|--------------------------|
--0--0--0--0--------------|--0--0--0--0--0--0--0--0--|
--------------------------|--------------------------|
--------------------------|--------------------------|


  PM PM PM PM PM PM PM PM                             
  E  E  E  E  E  E  E  E     E  E  E  E  E  E  E  E   
--0--0--0--0--3--3--3--0--|--2--2--2--2--2--2--2--2--|
--3--3--3--3--3--3--3--3--|--3--3--3--3--3--3--3--3--|
--2--2--2--2--0--0--0--0--|--2--2--2--2--2--2--2--2--|
--0--0--0--0--------------|--0--0--0--0--0--0--0--0--|
--------------------------|--------------------------|
--------------------------|--------------------------|


  E  E  E  E  E  E  E  E     E  E  E  E  E  E  E  E   
--------------3--3--3--3--|--2--2--2--2--2--2--2--2--|
--------------3--3--3--3--|--3--3--3--3--3--3--3--3--|
--2--2--2--2--0--0--0--0--|--2--2--2--2--2--2--2--2--|
--2--2--2--2--0--0--0--0--|--0--0--0--0--0--0--0--0--|
--0--0--0--0--2--2--2--2--|--------------------------|
--------------3--3--3--3--|--------------------------|


  E  E  E  E  E  E  E  E     E  E  E  E  E  E  E  E   
--------------3--3--3--3--|--2--2--2--2--2--2--2--2--|
--------------3--3--3--3--|--3--3--3--3--3--3--3--3--|
--2--2--2--2--0--0--0--0--|--2--2--2--2--2--2--2--2--|
--2--2--2--2--0--0--0--0--|--0--0--0--0--0--0--0--0--|
--0--0--0--0--2--2--2--2--|--------------------------|
--------------3--3--3--3--|--------------------------|


  E  E  E  E  E  E  E  E     E  E  E  E  E  E  E  E   
--------------3--3--3--3--|--2--2--2--2--2--2--2--2--|
--------------3--3--3--3--|--3--3--3--3--3--3--3--3--|
--2--2--2--2--0--0--0--0--|--2--2--2--2--2--2--2--2--|
--2--2--2--2--0--0--0--0--|--0--0--0--0--0--0--0--0--|
--0--0--0--0--2--2--2--2--|--------------------------|
--------------3--3--3--3--|--------------------------|


  E  E  E  E  E  E  E  E     E  E  E  E  E  E  E  E   
--------------3--3--3--3--|--2--2--2--2--2--2--2--2--|
--------------3--3--3--3--|--3--3--3--3--3--3--3--3--|
--2--2--2--2--0--0--0--0--|--2--2--2--2--2--2--2--2--|
--2--2--2--2--0--0--0--0--|--0--0--0--0--0--0--0--0--|
--0--0--0--0--2--2--2--2--|--------------------------|
--------------3--3--3--3--|--------------------------|


  E  E  E  E  E  E  E  E     E  E  E  E  E  E  E  E   
--------------3--3--3--3--|--2--2--2--2--2--2--2--2--|
--------------3--3--3--3--|--3--3--3--3--3--3--3--3--|
--2--2--2--2--0--0--0--0--|--2--2--2--2--2--2--2--2--|
--2--2--2--2--0--0--0--0--|--0--0--0--0--0--0--0--0--|
--0--0--0--0--2--2--2--2--|--------------------------|
--------------3--3--3--3--|--------------------------|


  E  E  E  E  E  E  E  E     E  E  E  E  E  E  E  E   
--------------3--3--3--3--|--2--2--2--2--2--2--2--2--|
--------------3--3--3--3--|--3--3--3--3--3--3--3--3--|
--2--2--2--2--0--0--0--0--|--2--2--2--2--2--2--2--2--|
--2--2--2--2--0--0--0--0--|--0--0--0--0--0--0--0--0--|
--0--0--0--0--2--2--2--2--|--------------------------|
--------------3--3--3--3--|--------------------------|


  E  E  E  E  E  E  E  E     E  E  E  E  E  E  E  E   
--------------3--3--3--3--|--2--2--2--2--2--2--2--2--|
--------------3--3--3--3--|--3--3--3--3--3--3--3--3--|
--2--2--2--2--0--0--0--0--|--2--2--2--2--2--2--2--2--|
--2--2--2--2--0--0--0--0--|--0--0--0--0--0--0--0--0--|
--0--0--0--0--2--2--2--2--|--------------------------|
--------------3--3--3--3--|--------------------------|


  E  E  E  E  E  E  E  E     E  E  E  Q    Q    E     E  E  E  Q    Q.       
--------------3--3--3--3--|------------------------|------------------------|
--------------3--3--3--3--|------------------------|------------------------|
--2--2--2--2--0--0--0--0--|------------------------|------------------------|
--2--2--2--2--0--0--0--0--|------------------------|------------------------|
--0--0--0--0--2--2--2--2--|--5------------------4--|--L--5--4--2------------|
--------------3--3--3--3--|-----0--2--3----5-------|----------------5~------|


  E  E  E  Q    Q    E     E  E  E  E  E  Q.        E  E  E  Q    Q    E   
------------------------|------------------------|------------------------|
------------------------|------------------------|------------------------|
------------------------|------------------------|------------------------|
------------------------|--------------5--4------|------------------------|
--5------------------4--|--L--5--4--2------------|--5------------------4--|
-----0--2--3----5-------|------------------------|-----0--2--3----5-------|


  E  E  E  Q    Q.         E  E  E  Q    Q    E     E  E  E  E  E  Q.      
------------------------|------------------------|------------------------|
------------------------|------------------------|------------------------|
------------------------|------------------------|------------------------|
------------------------|------------------------|--------------5--4------|
--L--5--4--2------------|--5------------------4--|--L--5--4--2------------|
----------------5~------|-----0--2--3----5-------|------------------------|


  H        E                                   E  E  H        Q     
--------------|---------|---------|---------|--2--2----------------|
--------------|---------|---------|---------|--3--3----------------|
--------------|---------|---------|---------|--2--2----------------|
--------------|---------|---------|---------|--0--0----------------|
--------------|---------|---------|---------|----------------------|
--------------|---------|---------|---------|----------------------|


  E  E  Q    E  E  Q       E  E  H        Q     
-------------3--3-------|--2--2----------------|
-------------3--3-------|--3--3----------------|
--2--2-------0--0-------|--2--2----------------|
--2--2-------0--0-------|--0--0----------------|
--0--0-------2--2-------|----------------------|
-------------3--3-------|----------------------|


   E   E   E   E   E   E   E   E     E  E  E  E  E  E  E  E   
--12--12--12--12--10--10--10--10--|--2--2--2--2--2--2--2--2--|
--12--12--12--12--10--10--10--10--|--3--3--3--3--3--3--3--3--|
----------------------------------|--2--2--2--2--2--2--2--2--|
----------------------------------|--0--0--0--0--0--0--0--0--|
----------------------------------|--------------------------|
----------------------------------|--------------------------|


  E  E  E  E  E  E  E  E     E  E  E  E  E  E  E  E   
--------------3--3--3--3--|--2--2--2--2--2--2--2--2--|
--------------3--3--3--3--|--3--3--3--3--3--3--3--3--|
--2--2--2--2--0--0--0--0--|--2--2--2--2--2--2--2--2--|
--2--2--2--2--0--0--0--0--|--0--0--0--0--0--0--0--0--|
--0--0--0--0--2--2--2--2--|--------------------------|
--------------3--3--3--3--|--------------------------|


  E  E  E  E  E  E  E  E     E  E  E  E  E  E  E  E   
--------------3--3--3--3--|--2--2--2--2--2--2--2--2--|
--------------3--3--3--3--|--3--3--3--3--3--3--3--3--|
--2--2--2--2--0--0--0--0--|--2--2--2--2--2--2--2--2--|
--2--2--2--2--0--0--0--0--|--0--0--0--0--0--0--0--0--|
--0--0--0--0--2--2--2--2--|--------------------------|
--------------3--3--3--3--|--------------------------|


  E  E  E  E  E  E  E  E     E  E  E  E  E  E  E  E   
--------------3--3--3--3--|--2--2--2--2--2--2--2--2--|
--------------3--3--3--3--|--3--3--3--3--3--3--3--3--|
--2--2--2--2--0--0--0--0--|--2--2--2--2--2--2--2--2--|
--2--2--2--2--0--0--0--0--|--0--0--0--0--0--0--0--0--|
--0--0--0--0--2--2--2--2--|--------------------------|
--------------3--3--3--3--|--------------------------|


  E  E  E  E  E  E  E  E     E  E  E  E  E  E  E  E   
--------------3--3--3--3--|--2--2--2--2--2--2--2--2--|
--------------3--3--3--3--|--3--3--3--3--3--3--3--3--|
--2--2--2--2--0--0--0--0--|--2--2--2--2--2--2--2--2--|
--2--2--2--2--0--0--0--0--|--0--0--0--0--0--0--0--0--|
--0--0--0--0--2--2--2--2--|--------------------------|
--------------3--3--3--3--|--------------------------|


  E  E  E  E  E  E  E  E     E  E  E  E  E  E  E  E   
--------------3--3--3--3--|--2--2--2--2--2--2--2--2--|
--------------3--3--3--3--|--3--3--3--3--3--3--3--3--|
--2--2--2--2--0--0--0--0--|--2--2--2--2--2--2--2--2--|
--2--2--2--2--0--0--0--0--|--0--0--0--0--0--0--0--0--|
--0--0--0--0--2--2--2--2--|--------------------------|
--------------3--3--3--3--|--------------------------|


  E  E  E  E  E  E  E  E     E  E  E  E  E  E  E  E   
--------------3--3--3--3--|--2--2--2--2--2--2--2--2--|
--------------3--3--3--3--|--3--3--3--3--3--3--3--3--|
--2--2--2--2--0--0--0--0--|--2--2--2--2--2--2--2--2--|
--2--2--2--2--0--0--0--0--|--0--0--0--0--0--0--0--0--|
--0--0--0--0--2--2--2--2--|--------------------------|
--------------3--3--3--3--|--------------------------|


  E  E  E  E  E  E  E  E     E  E  E  E  E  E  E  E   
--------------3--3--3--3--|--2--2--2--2--2--2--2--2--|
--------------3--3--3--3--|--3--3--3--3--3--3--3--3--|
--2--2--2--2--0--0--0--0--|--2--2--2--2--2--2--2--2--|
--2--2--2--2--0--0--0--0--|--0--0--0--0--0--0--0--0--|
--0--0--0--0--2--2--2--2--|--------------------------|
--------------3--3--3--3--|--------------------------|


  E  E  E  E  E  E  E  E     E  E  E  E  E  E  E  E   
--------------3--3--3--3--|--2--2--2--2--2--2--2--2--|
--------------3--3--3--3--|--3--3--3--3--3--3--3--3--|
--2--2--2--2--0--0--0--0--|--2--2--2--2--2--2--2--2--|
--2--2--2--2--0--0--0--0--|--0--0--0--0--0--0--0--0--|
--0--0--0--0--2--2--2--2--|--------------------------|
--------------3--3--3--3--|--------------------------|


  E  E  E  E  E  E  E  E     E  E  E  E  E  E  E  E   
--------------3--3--3--3--|--2--2--2--2--2--2--2--2--|
--------------3--3--3--3--|--3--3--3--3--3--3--3--3--|
--2--2--2--2--0--0--0--0--|--2--2--2--2--2--2--2--2--|
--2--2--2--2--0--0--0--0--|--0--0--0--0--0--0--0--0--|
--0--0--0--0--2--2--2--2--|--------------------------|
--------------3--3--3--3--|--------------------------|


  E  E  E  E  E  E  E  E     E  E  E  E  E  E  E  E   
--------------3--3--3--3--|--2--2--2--2--2--2--2--2--|
--------------3--3--3--3--|--3--3--3--3--3--3--3--3--|
--2--2--2--2--0--0--0--0--|--2--2--2--2--2--2--2--2--|
--2--2--2--2--0--0--0--0--|--0--0--0--0--0--0--0--0--|
--0--0--0--0--2--2--2--2--|--------------------------|
--------------3--3--3--3--|--------------------------|


  E  E  E  E  E  E  E  E     E  E  E  E  E  E  E  E   
--------------3--3--3--3--|--2--2--2--2--2--2--2--2--|
--------------3--3--3--3--|--3--3--3--3--3--3--3--3--|
--2--2--2--2--0--0--0--0--|--2--2--2--2--2--2--2--2--|
--2--2--2--2--0--0--0--0--|--0--0--0--0--0--0--0--0--|
--0--0--0--0--2--2--2--2--|--------------------------|
--------------3--3--3--3--|--------------------------|


  E  E  E  E  E  E  E  E     E  E  E  E  E  E  E  E   
--------------3--3--3--3--|--2--2--2--2--2--2--2--2--|
--------------3--3--3--3--|--3--3--3--3--3--3--3--3--|
--2--2--2--2--0--0--0--0--|--2--2--2--2--2--2--2--2--|
--2--2--2--2--0--0--0--0--|--0--0--0--0--0--0--0--0--|
--0--0--0--0--2--2--2--2--|--------------------------|
--------------3--3--3--3--|--------------------------|


  E  E  E  E  E  E  E  E     E  E  E  E  E  E  E  E   
--------------3--3--3--3--|--2--2--2--2--2--2--2--2--|
--------------3--3--3--3--|--3--3--3--3--3--3--3--3--|
--2--2--2--2--0--0--0--0--|--2--2--2--2--2--2--2--2--|
--2--2--2--2--0--0--0--0--|--0--0--0--0--0--0--0--0--|
--0--0--0--0--2--2--2--2--|--------------------------|
--------------3--3--3--3--|--------------------------|


  E  E  E  E  E  E  E  E     E  E  E  E  E  E  E  E    
--------------3--3--3--3--|--2--2--2--2--2--2--2--2--||
--------------3--3--3--3--|--3--3--3--3--3--3--3--3--||
--2--2--2--2--0--0--0--0--|--2--2--2--2--2--2--2--2--||
--2--2--2--2--0--0--0--0--|--0--0--0--0--0--0--0--0--||
--0--0--0--0--2--2--2--2--|--------------------------||
--------------3--3--3--3--|--------------------------||




=============================================================================


Guitar 2



            NH   NH                     NH    NH    NH                
      E     E    E   H         E        E     E     E   Q.      Q     
D||-------------------------------|----------------------------------|
A||-----------------15---------L--|----------------------------------|
F||--11---------------------------|--------------------12------11----|
C||------<>12--<>0----------------|--------<>12----------------------|
G||-------------------------------|--<>12--------<>12----------------|
D||-------------------------------|----------------------------------|


         NH   NH                     NH    NH    NH                
   E     E    E   H         E        E     E     E   Q.      Q     
-------------------------------|----------------------------------|
-----------------15---------L--|----------------------------------|
--11---------------------------|--------------------12------11----|
------<>12--<>0----------------|--------<>12----------------------|
-------------------------------|--<>12--------<>12----------------|
-------------------------------|----------------------------------|


         NH   NH                     NH    NH    NH                
   E     E    E   H         E        E     E     E   Q.      Q     
-------------------------------|----------------------------------|
-----------------15---------L--|----------------------------------|
--11---------------------------|--------------------12------11----|
------<>12--<>0----------------|--------<>12----------------------|
-------------------------------|--<>12--------<>12----------------|
-------------------------------|----------------------------------|


         NH   NH                     NH    NH    NH                        
   E     E    E   H         E        E     E     E   Q.      Q             
-------------------------------|----------------------------------|-------|
-----------------15---------L--|----------------------------------|-------|
--11---------------------------|--------------------12------11----|-------|
------<>12--<>0----------------|--------<>12----------------------|-------|
-------------------------------|--<>12--------<>12----------------|-------|
-------------------------------|----------------------------------|-------|


-------|-------|-------|-------|-------|-------|-------|
-------|-------|-------|-------|-------|-------|-------|
-------|-------|-------|-------|-------|-------|-------|
-------|-------|-------|-------|-------|-------|-------|
-------|-------|-------|-------|-------|-------|-------|
-------|-------|-------|-------|-------|-------|-------|


                         PM                                         
   E   E   E   Q     E   E   E      E   E   E   E   E   E   E   E   
--------------14----12----------|----------------------------------|
------15------------------------|--14--15--14------14--------------|
--14------14------------14--14--|--------------14------14--12--11--|
--------------------------------|----------------------------------|
--------------------------------|----------------------------------|
--------------------------------|----------------------------------|


                         PM                                         
   E   E   E   Q     E   E   E      E   E   E   E   E   E   E   E   
--------------14----12----------|----------------------------------|
------15------------------------|--14--15--14------14--------------|
--14------14------------14--14--|--------------14------14--12--11--|
--------------------------------|----------------------------------|
--------------------------------|----------------------------------|
--------------------------------|----------------------------------|


                         PM                                         
   E   E   E   Q     E   E   E      E   E   E   E   E   E   E   E   
--------------14----12----------|----------------------------------|
------15------------------------|--14--15--14------14--------------|
--14------14------------14--14--|--------------14------14--12--11--|
--------------------------------|----------------------------------|
--------------------------------|----------------------------------|
--------------------------------|----------------------------------|


                         PM                                         
   E   E   E   Q     E   E   E      E   E   E   E   E   E   E   E   
--------------14----12----------|----------------------------------|
------15------------------------|--14--15--14------14--------------|
--14------14------------14--14--|--------------14------14--12--11--|
--------------------------------|----------------------------------|
--------------------------------|----------------------------------|
--------------------------------|----------------------------------|


  E  E  H        Q       E  E  Q    E  E  Q       E  E  H        Q     
--2--2----------------|-------------3--3-------|--2--2----------------|
--3--3----------------|-------------3--3-------|--3--3----------------|
--2--2----------------|--2--2-------0--0-------|--2--2----------------|
--0--0----------------|--2--2-------0--0-------|--0--0----------------|
----------------------|--0--0-------2--2-------|----------------------|
----------------------|-------------3--3-------|----------------------|


  E  E  Q    E  E  Q       E  E  H        Q       E  E  Q    E  E  Q     
-------------3--3-------|--2--2----------------|-------------3--3-------|
-------------3--3-------|--3--3----------------|-------------3--3-------|
--2--2-------0--0-------|--2--2----------------|--2--2-------0--0-------|
--2--2-------0--0-------|--0--0----------------|--2--2-------0--0-------|
--0--0-------2--2-------|----------------------|--0--0-------2--2-------|
-------------3--3-------|----------------------|-------------3--3-------|


  E  E  H        Q       E  E  Q    E  E  Q     
--2--2----------------|-------------3--3-------|
--3--3----------------|-------------3--3-------|
--2--2----------------|--2--2-------0--0-------|
--0--0----------------|--2--2-------0--0-------|
----------------------|--0--0-------2--2-------|
----------------------|-------------3--3-------|


                         PM                                         
   E   E   E   Q     E   E   E      E   E   E   E   E   E   E   E   
--------------14----12----------|----------------------------------|
------15------------------------|--14--15--14------14--------------|
--14------14------------14--14--|--------------14------14--12--11--|
--------------------------------|----------------------------------|
--------------------------------|----------------------------------|
--------------------------------|----------------------------------|


                         PM                                         
   E   E   E   Q     E   E   E      E   E   E   E   E   E   E   E   
--------------14----12----------|----------------------------------|
------15------------------------|--14--15--14------14--------------|
--14------14------------14--14--|--------------14------14--12--11--|
--------------------------------|----------------------------------|
--------------------------------|----------------------------------|
--------------------------------|----------------------------------|


                         PM                                         
   E   E   E   Q     E   E   E      E   E   E   E   E   E   E   E   
--------------14----12----------|----------------------------------|
------15------------------------|--14--15--14------14--------------|
--14------14------------14--14--|--------------14------14--12--11--|
--------------------------------|----------------------------------|
--------------------------------|----------------------------------|
--------------------------------|----------------------------------|


                         PM                                         
   E   E   E   Q     E   E   E      E   E   E   E   E   E   E   E   
--------------14----12----------|----------------------------------|
------15------------------------|--14--15--14------14--------------|
--14------14------------14--14--|--------------14------14--12--11--|
--------------------------------|----------------------------------|
--------------------------------|----------------------------------|
--------------------------------|----------------------------------|


                         PM                                         
   E   E   E   Q     E   E   E      E   E   E   E   E   E   E   E   
--------------14----12----------|----------------------------------|
------15------------------------|--14--15--14------14--------------|
--14------14------------14--14--|--------------14------14--12--11--|
--------------------------------|----------------------------------|
--------------------------------|----------------------------------|
--------------------------------|----------------------------------|


                         PM                                         
   E   E   E   Q     E   E   E      E   E   E   E   E   E   E   E   
--------------14----12----------|----------------------------------|
------15------------------------|--14--15--14------14--------------|
--14------14------------14--14--|--------------14------14--12--11--|
--------------------------------|----------------------------------|
--------------------------------|----------------------------------|
--------------------------------|----------------------------------|


                         PM                                         
   E   E   E   Q     E   E   E      E   E   E   E   E   E   E   E   
--------------14----12----------|----------------------------------|
------15------------------------|--14--15--14------14--------------|
--14------14------------14--14--|--------------14------14--12--11--|
--------------------------------|----------------------------------|
--------------------------------|----------------------------------|
--------------------------------|----------------------------------|


                         PM                                                 
   E   E   E   Q     E   E   E      E   E   E   E   E   E   E   E           
--------------14----12----------|----------------------------------|-------|
------15------------------------|--14--15--14------14--------------|-------|
--14------14------------14--14--|--------------14------14--12--11--|-------|
--------------------------------|----------------------------------|-------|
--------------------------------|----------------------------------|-------|
--------------------------------|----------------------------------|-------|


-------|-------|-------|-------|-------|-------|-------|
-------|-------|-------|-------|-------|-------|-------|
-------|-------|-------|-------|-------|-------|-------|
-------|-------|-------|-------|-------|-------|-------|
-------|-------|-------|-------|-------|-------|-------|
-------|-------|-------|-------|-------|-------|-------|


         NH   NH                     NH    NH    NH                
   E     E    E   H         E        E     E     E   Q.      Q     
-------------------------------|----------------------------------|
-----------------15---------L--|----------------------------------|
--11---------------------------|--------------------12------11----|
------<>12--<>0----------------|--------<>12----------------------|
-------------------------------|--<>12--------<>12----------------|
-------------------------------|----------------------------------|


         NH   NH                     NH    NH    NH                
   E     E    E   H         E        E     E     E   Q.      Q     
-------------------------------|----------------------------------|
-----------------15---------L--|----------------------------------|
--11---------------------------|--------------------12------11----|
------<>12--<>0----------------|--------<>12----------------------|
-------------------------------|--<>12--------<>12----------------|
-------------------------------|----------------------------------|


         NH   NH                     NH    NH    NH                
   E     E    E   H         E        E     E     E   Q.      Q     
-------------------------------|----------------------------------|
-----------------15---------L--|----------------------------------|
--11---------------------------|--------------------12------11----|
------<>12--<>0----------------|--------<>12----------------------|
-------------------------------|--<>12--------<>12----------------|
-------------------------------|----------------------------------|


         NH   NH                     NH    NH    NH                        
   E     E    E   H         E        E     E     E   Q.      Q             
-------------------------------|----------------------------------|-------|
-----------------15---------L--|----------------------------------|-------|
--11---------------------------|--------------------12------11----|-------|
------<>12--<>0----------------|--------<>12----------------------|-------|
-------------------------------|--<>12--------<>12----------------|-------|
-------------------------------|----------------------------------|-------|


-------|-------|-------|-------|-------|-------|
-------|-------|-------|-------|-------|-------|
-------|-------|-------|-------|-------|-------|
-------|-------|-------|-------|-------|-------|
-------|-------|-------|-------|-------|-------|
-------|-------|-------|-------|-------|-------|


                                                            PM      
   E   E   E   E   E   E   E   E      E   E   E   Q     E   E   E   
----------------------------------|--------------14----12----------|
----------------------12--14--15--|------15------------------------|
----------11--12--14--------------|--14------14------------14--14--|
--12--14--------------------------|--------------------------------|
----------------------------------|--------------------------------|
----------------------------------|--------------------------------|


                                                            PM      
   E   E   E   E   E   E   E   E      E   E   E   Q     E   E   E   
----------------------------------|--------------14----12----------|
--14--15--14------14--------------|------15------------------------|
--------------14------14--12--11--|--14------14------------14--14--|
----------------------------------|--------------------------------|
----------------------------------|--------------------------------|
----------------------------------|--------------------------------|


                                                            PM      
   E   E   E   E   E   E   E   E      E   E   E   Q     E   E   E   
----------------------------------|--------------14----12----------|
--14--15--14------14--------------|------15------------------------|
--------------14------14--12--11--|--14------14------------14--14--|
----------------------------------|--------------------------------|
----------------------------------|--------------------------------|
----------------------------------|--------------------------------|


                                                            PM      
   E   E   E   E   E   E   E   E      E   E   E   Q     E   E   E   
----------------------------------|--------------14----12----------|
--14--15--14------14--------------|------15------------------------|
--------------14------14--12--11--|--14------14------------14--14--|
----------------------------------|--------------------------------|
----------------------------------|--------------------------------|
----------------------------------|--------------------------------|


                                                            PM      
   E   E   E   E   E   E   E   E      E   E   E   Q     E   E   E   
----------------------------------|--------------14----12----------|
----------------------12--14--15--|------15------------------------|
----------11--12--14--------------|--14------14------------14--14--|
--12--14--------------------------|--------------------------------|
----------------------------------|--------------------------------|
----------------------------------|--------------------------------|


                                                            PM      
   E   E   E   E   E   E   E   E      E   E   E   Q     E   E   E   
----------------------------------|--------------14----12----------|
--14--15--14------14--------------|------15------------------------|
--------------14------14--12--11--|--14------14------------14--14--|
----------------------------------|--------------------------------|
----------------------------------|--------------------------------|
----------------------------------|--------------------------------|


                                                            PM      
   E   E   E   E   E   E   E   E      E   E   E   Q     E   E   E   
----------------------------------|--------------14----12----------|
--14--15--14------14--------------|------15------------------------|
--------------14------14--12--11--|--14------14------------14--14--|
----------------------------------|--------------------------------|
----------------------------------|--------------------------------|
----------------------------------|--------------------------------|


                                                            PM      
   E   E   E   E   E   E   E   E      E   E   E   Q     E   E   E   
----------------------------------|--------------14----12----------|
--14--15--14------14--------------|------15------------------------|
--------------14------14--12--11--|--14------14------------14--14--|
----------------------------------|--------------------------------|
----------------------------------|--------------------------------|
----------------------------------|--------------------------------|


                                                            PM      
   E   E   E   E   E   E   E   E      E   E   E   Q     E   E   E   
----------------------------------|--------------14----12----------|
--14--15--14------14--------------|------15------------------------|
--------------14------14--12--11--|--14------14------------14--14--|
----------------------------------|--------------------------------|
----------------------------------|--------------------------------|
----------------------------------|--------------------------------|


                                                            PM      
   E   E   E   E   E   E   E   E      E   E   E   Q     E   E   E   
----------------------------------|--------------14----12----------|
--14--15--14------14--------------|------15------------------------|
--------------14------14--12--11--|--14------14------------14--14--|
----------------------------------|--------------------------------|
----------------------------------|--------------------------------|
----------------------------------|--------------------------------|


   E   E   E   E   E   E   E   E            
----------------------------------|-------||
--14--15--14------14--------------|-------||
--------------14------14--12--11--|-------||
----------------------------------|-------||
----------------------------------|-------||
----------------------------------|-------||


=========================================================


Guitar 3



D||-----|-------|-------|-------|-------|-------|-------|-------|-------|
A||-----|-------|-------|-------|-------|-------|-------|-------|-------|
F||-----|-------|-------|-------|-------|-------|-------|-------|-------|
C||-----|-------|-------|-------|-------|-------|-------|-------|-------|
G||-----|-------|-------|-------|-------|-------|-------|-------|-------|
D||-----|-------|-------|-------|-------|-------|-------|-------|-------|


-------|-------|-------|-------|-------|-------|-------|-------|-------|-------|
-------|-------|-------|-------|-------|-------|-------|-------|-------|-------|
-------|-------|-------|-------|-------|-------|-------|-------|-------|-------|
-------|-------|-------|-------|-------|-------|-------|-------|-------|-------|
-------|-------|-------|-------|-------|-------|-------|-------|-------|-------|
-------|-------|-------|-------|-------|-------|-------|-------|-------|-------|


-------|-------|-------|-------|-------|-------|-------|-------|-------|-------|
-------|-------|-------|-------|-------|-------|-------|-------|-------|-------|
-------|-------|-------|-------|-------|-------|-------|-------|-------|-------|
-------|-------|-------|-------|-------|-------|-------|-------|-------|-------|
-------|-------|-------|-------|-------|-------|-------|-------|-------|-------|
-------|-------|-------|-------|-------|-------|-------|-------|-------|-------|


-------|-------|-------|-------|-------|-------|-------|-------|-------|-------|
-------|-------|-------|-------|-------|-------|-------|-------|-------|-------|
-------|-------|-------|-------|-------|-------|-------|-------|-------|-------|
-------|-------|-------|-------|-------|-------|-------|-------|-------|-------|
-------|-------|-------|-------|-------|-------|-------|-------|-------|-------|
-------|-------|-------|-------|-------|-------|-------|-------|-------|-------|


-------|-------|-------|-------|-------|-------|-------|-------|-------|-------|
-------|-------|-------|-------|-------|-------|-------|-------|-------|-------|
-------|-------|-------|-------|-------|-------|-------|-------|-------|-------|
-------|-------|-------|-------|-------|-------|-------|-------|-------|-------|
-------|-------|-------|-------|-------|-------|-------|-------|-------|-------|
-------|-------|-------|-------|-------|-------|-------|-------|-------|-------|


-------|-------|-------|-------|-------|-------|-------|-------|-------|-------|
-------|-------|-------|-------|-------|-------|-------|-------|-------|-------|
-------|-------|-------|-------|-------|-------|-------|-------|-------|-------|
-------|-------|-------|-------|-------|-------|-------|-------|-------|-------|
-------|-------|-------|-------|-------|-------|-------|-------|-------|-------|
-------|-------|-------|-------|-------|-------|-------|-------|-------|-------|


                                           E   E   E   E   E   E   E   E   
-------|-------|-------|-------|-------|----------------------------------|
-------|-------|-------|-------|-------|----------------------------------|
-------|-------|-------|-------|-------|----------------------------------|
-------|-------|-------|-------|-------|--12--12--12--12--12--12--12--12--|
-------|-------|-------|-------|-------|----------------------------------|
-------|-------|-------|-------|-------|--10--10--10--10--10--10--10--10--|


   E   E   E   E  E  E  E  E     E  E  E  E  E  E  E  E   
------------------------------|--------------------------|
------------------------------|--------------------------|
------------------------------|--------------------------|
--11--11--11--11--9--9--9--9--|--7--7--7--7--7--7--7--7--|
------------------------------|--------------------------|
---9---9---9---9--7--7--7--7--|--5--5--5--5--5--5--5--5--|


   E   E   E   E   E   E   E   E      E   E   E   E   E   E   E   E   
----------------------------------|----------------------------------|
----------------------------------|----------------------------------|
----------------------------------|----------------------------------|
--11--11--11--11--12--12--12--12--|--12--12--12--12--12--12--12--12--|
----------------------------------|----------------------------------|
---9---9---9---9--10--10--10--10--|--10--10--10--10--10--10--10--10--|


   E   E   E   E  E  E  E  E     E  E  E  E  E  E  E  E   
------------------------------|--------------------------|
------------------------------|--------------------------|
------------------------------|--------------------------|
--11--11--11--11--9--9--9--9--|--7--7--7--7--7--7--7--7--|
------------------------------|--------------------------|
---9---9---9---9--7--7--7--7--|--5--5--5--5--5--5--5--5--|


   E   E   E   E   E   E   E   E      E   E   E   E   E   E   E   E   
----------------------------------|----------------------------------|
----------------------------------|----------------------------------|
----------------------------------|----------------------------------|
--11--11--11--11--12--12--12--12--|--12--12--12--12--12--12--12--12--|
----------------------------------|----------------------------------|
---9---9---9---9--10--10--10--10--|--10--10--10--10--10--10--10--10--|


   E   E   E   E  E  E  E  E     E  E  E  E  E  E  E  E   
------------------------------|--------------------------|
------------------------------|--------------------------|
------------------------------|--------------------------|
--11--11--11--11--9--9--9--9--|--7--7--7--7--7--7--7--7--|
------------------------------|--------------------------|
---9---9---9---9--7--7--7--7--|--5--5--5--5--5--5--5--5--|


   E   E   E   E   E   E   E   E      E   E   E   E   E   E   E   E   
----------------------------------|----------------------------------|
----------------------------------|----------------------------------|
----------------------------------|----------------------------------|
--11--11--11--11--12--12--12--12--|--12--12--12--12--12--12--12--12--|
----------------------------------|----------------------------------|
---9---9---9---9--10--10--10--10--|--10--10--10--10--10--10--10--10--|


   E   E   E   E  E  E  E  E     E  E  E  E  E  E  E  E   
------------------------------|--------------------------|
------------------------------|--------------------------|
------------------------------|--------------------------|
--11--11--11--11--9--9--9--9--|--7--7--7--7--7--7--7--7--|
------------------------------|--------------------------|
---9---9---9---9--7--7--7--7--|--5--5--5--5--5--5--5--5--|


   E   E   E   E   E   E   E   E      E   E   E   E   E   E   E   E   
----------------------------------|----------------------------------|
----------------------------------|----------------------------------|
----------------------------------|----------------------------------|
--11--11--11--11--12--12--12--12--|--12--12--12--12--12--12--12--12--|
----------------------------------|----------------------------------|
---9---9---9---9--10--10--10--10--|--10--10--10--10--10--10--10--10--|


   E   E   E   E  E  E  E  E     E  E  E  E  E  E  E  E   
------------------------------|--------------------------|
------------------------------|--------------------------|
------------------------------|--------------------------|
--11--11--11--11--9--9--9--9--|--7--7--7--7--7--7--7--7--|
------------------------------|--------------------------|
---9---9---9---9--7--7--7--7--|--5--5--5--5--5--5--5--5--|


   E   E   E   E   E   E   E   E      E   E   E   E   E   E   E   E   
----------------------------------|----------------------------------|
----------------------------------|----------------------------------|
----------------------------------|----------------------------------|
--11--11--11--11--12--12--12--12--|--12--12--12--12--12--12--12--12--|
----------------------------------|----------------------------------|
---9---9---9---9--10--10--10--10--|--10--10--10--10--10--10--10--10--|


   E   E   E   E  E  E  E  E     E  E  E  E  E  E  E  E   
------------------------------|--------------------------|
------------------------------|--------------------------|
------------------------------|--------------------------|
--11--11--11--11--9--9--9--9--|--7--7--7--7--7--7--7--7--|
------------------------------|--------------------------|
---9---9---9---9--7--7--7--7--|--5--5--5--5--5--5--5--5--|


   E   E   E   E   E   E   E   E      E   E   E   E   E   E   E   E   
----------------------------------|----------------------------------|
----------------------------------|----------------------------------|
----------------------------------|----------------------------------|
--11--11--11--11--12--12--12--12--|--12--12--12--12--12--12--12--12--|
----------------------------------|----------------------------------|
---9---9---9---9--10--10--10--10--|--10--10--10--10--10--10--10--10--|


   E   E   E   E  E  E  E  E     E  E  E  E  E  E  E  E   
------------------------------|--------------------------|
------------------------------|--------------------------|
------------------------------|--------------------------|
--11--11--11--11--9--9--9--9--|--7--7--7--7--7--7--7--7--|
------------------------------|--------------------------|
---9---9---9---9--7--7--7--7--|--5--5--5--5--5--5--5--5--|


   E   E   E   E   E   E   E   E            
----------------------------------|-------||
----------------------------------|-------||
----------------------------------|-------||
--11--11--11--11--12--12--12--12--|-------||
----------------------------------|-------||
---9---9---9---9--10--10--10--10--|-------||


============================================================

                      
harmony part (occurs a few times in the song)



D||-------|-------|-------|-------|-------|-------|-------|-------|-------|
A||-------|-------|-------|-------|-------|-------|-------|-------|-------|
F||-------|-------|-------|-------|-------|-------|-------|-------|-------|
C||-------|-------|-------|-------|-------|-------|-------|-------|-------|
G||-------|-------|-------|-------|-------|-------|-------|-------|-------|
D||-------|-------|-------|-------|-------|-------|-------|-------|-------|



   E   E   E   E   E   E   E   E      H        H                         
----------------------10--12--14--|--15-----------------|-------|-------|
----------10--12--14--12--14--15--|--15-----------------|-------|-------|
--11--12--11--12--14--------------|---------------------|-------|-------|
--12--14--------------------------|---------------------|-------|-------|
----------------------------------|---------------------|-------|-------|
----------------------------------|---------------------|-------|-------|






Duration Legend
---------------
W - whole
H - half
Q - quarter
E - 8th
S - 16th
T - 32nd
X - 64th
. - note dotted
|-n-|  - n-tuplets


Tablature Legend
----------------
L - tied note
x - dead note
g - grace note
(n) - ghost note
> - accentuded note
NH - natural harmonic
AH - artificial harmonic
TH - tapped harmonic
SH - semi harmonic
PH - pitch harmonic
h - hammer on
p - pull off
b - bend
br - bendRelease
pb - preBend
pbr - preBendRelease
brb - bendReleaseBend
\n/ - tremolo bar dip
\n - tremolo bar dive
-/n - tremolo bar Release up
/n\ - tremolo bar inverted dip
/n - tremolo bar return
-\n - tremolo bar Release down
S - shift slide
s - legato slide
/ -  slide into from below or out of upwards
\ -  slide into from above or out of downwards
~ - vibrato
W - wide vibrato
tr - trill
TP - tremolo picking
T - tapping
S - slap
P - pop
< - fade in
^ - brush up
v - brush down



Tap to rate this tab
# A B C D E F G H I J K L M N O P Q R S T U V W X Y Z