Song name
# A B C D E F G H I J K L M N O P Q R S T U V W X Y Z

Converge - Heartache tab

Intro/Chorus
|------------------------|
|-----7/-------6/--------|
|-----7/-------6/--------|
|--6------6-3-----1-0-0--|
|--6------6-3-----1-0-0--|
|--6------6-3-----1-0-0--|


Verse
|---------------------------------|
|---------------------------------|
|-------------4-4-4-4-4-4-4-4-4-4-|
|-6-5-5-4-3---3-3-3-3-3-3-3-3-3-3-|
|-6-3-5-4-3---2-2-2-2-2-2-2-2-2-2-|
|-6---5-4-3-----------------------|


Bridge
|-------------------------------------------------------|
|-------------------------------------------------------|
|-------------------------------------------------------|
|-6-5--6-5-6-7-5--6-5-6-7-------------------------------|
|-6-5--6-5-6-7-5--6-5-6-7---3---------2-----3---------2-|
|-6-5--6-5-6-7-5--6-5-6-7-6---5-4-3-0---6-6---5-4-3-0---|


Outro
|------------||---------------------------||-------------------------|
|------------||---------------------------||-------------------------|
|------------||---------------------------||-------------------------|
|-6-5-5-4-3--||-6--5--4-4-3--4--3--2-2-1--||-6--5--4-4-3--4-3-2-1-0--|
|-6-3-5-4-3--||-6--5--4-4-3--4--3--2-2-1--||-6--5--4-4-3--4-3-2-1-0--|
|-6---5-4-3--||-6--5--4-4-3--4--3--2-2-1--||-6--5--4-4-3--4-3-2-1-0--|
Tap to rate this tab
 
# A B C D E F G H I J K L M N O P Q R S T U V W X Y Z