Song name
# A B C D E F G H I J K L M N O P Q R S T U V W X Y Z

Copeland - California tab

-------------------------------------------------------------------------------
			     CALIFORNIA - Copeland
-------------------------------------------------------------------------------

Tabbed by: Robert Piller
Email: nothin7@hotmail.com

Tuning: Standard

Here's the gist...

     Verse     Prechorus    Chorus       Bridge    Ending
e|-0-0-0-0(2)-|-2-0-3-2-|-3-3-0-2(0)-|-3-3-0-2(0)-|---------------x-----------------|
B|-3-3-3-3(3)-|-3-0-3-3-|-3-3-0-3(3)-|-3-3-0-3(3)-|-------3-------x-----------------|
G|-0-0-0-2(2)-|-2-0-0-2-|-0-0-0-2(2)-|-0-0-0-2(2)-|-----0---4b5-2-x-----0-2-2-0-0---|
D|-2-2-2-0(0)-|-0-2-2-0-|-0-2-2-0(0)-|-2-0-2-0(0)-|-2-4-----------x-2-4-----------4-|
A|-3-3-2-0(0)-|-0-2-3-0-|-2-3-2-0(0)-|-3-2-2-0(0)-|---------------x-----------------|
E|-3-3-0------|---0-----|-3---0------|---3-0------|---------------x-----------------|
Tap to rate this tab
# A B C D E F G H I J K L M N O P Q R S T U V W X Y Z