Song name
# A B C D E F G H I J K L M N O P Q R S T U V W X Y Z

Cramps - Im Cramped tab

         The Cramps - I'm Cramped

There are two guitars in this - one plays what is shown below, the other just follows
like an odd lead/rhythm guitar. It pretty much only plays the root notes of each chords,
lots of sliding around and some additional notes to the chord pattern. Oh, and as ever, 
ton of slap-back echo, and a smidgen of reverb.

    Intro
      - the complete chord isn't played, it's a weird kind of tremelo
        picking across the strings, no doubt with some effect on top of it
     F#                         F#
e|---2--------------------------2--------------------------------|
B|---2--------------------------2--------------------------------|
G|---3--Mainly these two--------3--Full chord--------------------|
D|---4---strings----------------4---ring-------------------------|
A|---4--------------------------4--------------------------------|
E|---2--------------------------2--------------------------------|

    Verse 1
     F#      E         B       A
e|---2-2-2---0-0-------7-7-7-/-5-5-------------------------------|
B|---2-2-2---0-0-------7-7-7-/-5-5-------------------------------|
G|---3-3-3-/-1-1-------8-8-8-/-6-6-------------------------------|
D|---4-4-4-/-2-2--x4---9-9-9-/-7-7--x4---------------------------|
A|---4-4-4-/-2-2-------9-9-9-/-7-7-------------------------------|
E|---2-2-2---0-0-------7-7-7-/-5-5-------------------------------|

     F#      E         C#              B             F#      E
e|---2-2-2---0-0-------9--9--9--9--9---7-7-7-7-7-7---2-2-2---0-0----|
B|---2-2-2---0-0-------9--9--9--9--9---7-7-7-7-7-7---2-2-2---0-0----|
G|---3-3-3-/-1-1-------10-10-10-10-10--8-8-8-8-8-8---3-3-3-/-1-1----|
D|---4-4-4-/-2-2--x4---11-11-11-11-11--9-9-9-9-9-9---4-4-4-/-2-2--x4|
A|---4-4-4-/-2-2-------11-11-11-11-11--9-9-9-9-9-9---4-4-4-/-2-2----|
E|---2-2-2---0-0-------9--9--9--9--9---7-7-7-7-7-7---2-2-2---0-0----|

    Verse 2
     F#      E         B       A
e|---2-2-2---0-0-------7-7-7-/-5-5-------------------------------|
B|---2-2-2---0-0-------7-7-7-/-5-5-------------------------------|
G|---3-3-3-/-1-1-------8-8-8-/-6-6-------------------------------|
D|---4-4-4-/-2-2--x4---9-9-9-/-7-7--x4---------------------------|
A|---4-4-4-/-2-2-------9-9-9-/-7-7-------------------------------|
E|---2-2-2---0-0-------7-7-7-/-5-5-------------------------------|

     F#      E         C#              B             F#      E
e|---2-2-2---0-0-------9--9--9--9--9---7-7-7-7-7-7---2-2-2---0-0----|
B|---2-2-2---0-0-------9--9--9--9--9---7-7-7-7-7-7---2-2-2---0-0----|
G|---3-3-3-/-1-1-------10-10-10-10-10--8-8-8-8-8-8---3-3-3-/-1-1----|
D|---4-4-4-/-2-2--x4---11-11-11-11-11--9-9-9-9-9-9---4-4-4-/-2-2--x4|
A|---4-4-4-/-2-2-------11-11-11-11-11--9-9-9-9-9-9---4-4-4-/-2-2----|
E|---2-2-2---0-0-------9--9--9--9--9---7-7-7-7-7-7---2-2-2---0-0----|

    Verse 3
     F#      E         B       A
e|---2-2-2---0-0-------7-7-7-/-5-5-------------------------------|
B|---2-2-2---0-0-------7-7-7-/-5-5-------------------------------|
G|---3-3-3-/-1-1-------8-8-8-/-6-6-------------------------------|
D|---4-4-4-/-2-2--x4---9-9-9-/-7-7--x4---------------------------|
A|---4-4-4-/-2-2-------9-9-9-/-7-7-------------------------------|
E|---2-2-2---0-0-------7-7-7-/-5-5-------------------------------|

     F#      E         C#              B             F#      E
e|---2-2-2---0-0-------9--9--9--9--9---7-7-7-7-7-7---2-2-2---0-0----|
B|---2-2-2---0-0-------9--9--9--9--9---7-7-7-7-7-7---2-2-2---0-0----|
G|---3-3-3-/-1-1-------10-10-10-10-10--8-8-8-8-8-8---3-3-3-/-1-1----|
D|---4-4-4-/-2-2--x4---11-11-11-11-11--9-9-9-9-9-9---4-4-4-/-2-2--x4|
A|---4-4-4-/-2-2-------11-11-11-11-11--9-9-9-9-9-9---4-4-4-/-2-2----|
E|---2-2-2---0-0-------9--9--9--9--9---7-7-7-7-7-7---2-2-2---0-0----|

    Break
     F# E F#  A B  A B   E F# E F#  B C#  A B
e|---2--0/2---5/7--5/7---0/2--0/2---7/9---5/7----------------------|
B|---2--0/2---5/7--5/7---0/2--0/2---7/9---5/7----------------------|
G|---3--1/3---6/8--6/8---1/3--1/3---8/10--6/8----------------------|
D|---4--2/4---7/9--7/9---2/4--2/4---9/11--7/9----------------------|
A|---4--2/4---7/9--7/9---2/4--2/4---9/11--7/9----------------------|
E|---2--0/2---5/7--5/7---0/2--0/2---7/9---5/7----------------------|

    Verse 4
     F#      E         B       A
e|---2-2-2---0-0-------7-7-7-/-5-5-------------------------------|
B|---2-2-2---0-0-------7-7-7-/-5-5-------------------------------|
G|---3-3-3-/-1-1-------8-8-8-/-6-6-------------------------------|
D|---4-4-4-/-2-2--x8---9-9-9-/-7-7--x4---------------------------|
A|---4-4-4-/-2-2-------9-9-9-/-7-7-------------------------------|
E|---2-2-2---0-0-------7-7-7-/-5-5-------------------------------|

     F#      E         C#              B             F#      E
e|---2-2-2---0-0-------9--9--9--9--9---7-7-7-7-7-7---2-2-2---0-0----|
B|---2-2-2---0-0-------9--9--9--9--9---7-7-7-7-7-7---2-2-2---0-0----|
G|---3-3-3-/-1-1-------10-10-10-10-10--8-8-8-8-8-8---3-3-3-/-1-1----|
D|---4-4-4-/-2-2--x4---11-11-11-11-11--9-9-9-9-9-9---4-4-4-/-2-2--x4|
A|---4-4-4-/-2-2-------11-11-11-11-11--9-9-9-9-9-9---4-4-4-/-2-2----|
E|---2-2-2---0-0-------9--9--9--9--9---7-7-7-7-7-7---2-2-2---0-0----|

    Last Verse
     F#      E         B       A
e|---2-2-2---0-0-------7-7-7-/-5-5-------------------------------|
B|---2-2-2---0-0-------7-7-7-/-5-5-------------------------------|
G|---3-3-3-/-1-1-------8-8-8-/-6-6-------------------------------|
D|---4-4-4-/-2-2--x4---9-9-9-/-7-7--x4---------------------------|
A|---4-4-4-/-2-2-------9-9-9-/-7-7-------------------------------|
E|---2-2-2---0-0-------7-7-7-/-5-5-------------------------------|

     F#      E         C#              B
e|---2-2-2---0-0-------9--9--9--9--9---7-7-7-7-7-7---------------|
B|---2-2-2---0-0-------9--9--9--9--9---7-7-7-7-7-7---------------|
G|---3-3-3-/-1-1-------10-10-10-10-10--8-8-8-8-8-8---------------|
D|---4-4-4-/-2-2--x4---11-11-11-11-11--9-9-9-9-9-9---------------|
A|---4-4-4-/-2-2-------11-11-11-11-11--9-9-9-9-9-9---------------|
E|---2-2-2---0-0-------9--9--9--9--9---7-7-7-7-7-7---------------|


| /  slide up
| \  slide down
| h  hammer-on
| p  pull-off
| ~  vibrato
| +  harmonic
| x  Mute note

Tabbed by Michael Daniells
Tap to rate this tab
 
# A B C D E F G H I J K L M N O P Q R S T U V W X Y Z