Song name
# A B C D E F G H I J K L M N O P Q R S T U V W X Y Z

Crashdiet - Its A Miracle tab

Well,check this out,motherfukkers :)
Okey,it's my first online-tab, but I think it's really good.

It's not exactly how it goes, but I'm pretty sure that the chords are in 99 % correct, 
just how to to play them...
I guess it's just to listen to the song and find yer own style :)
Have fun playing!

INTRO
e|---------------------------------------------|
B|---------------------------------------------|
G|---------------------2-----------------------|
D|---------0-2-----x-x-2----x-x-3------0-------|
A|---------0-2-----x-x-0----x-x-5--x-x-0-------|
E|-******-----------------------3--x-x-0-------|

*Slide with the pick along the string

e|---------------------------------------------|
B|---------------------------------------------|
G|--------------------2------------------------|
D|-----x--0-2-----x-x-2----x-x-3----5----2-----|
A|-----x--0-2-----x-x-0----x-x-5--x-5--x-2-----|
E|-----------------------------3--x-3--x-0-----|

VERSE
e|---------------------------------------------|
B|---------------------------------------------|
G|--4--------2-------------4---------2---------|
D|--4--------2--------x-x--4---------2----2----|
A|--2--------0--------x-x--2---------0----2----|
E|----------------------------------------0----|
    "My weak..."

e|---------------------------------------------|
B|---------------------------------------------|
G|--4--------2-------------4---------2---------|
D|--4------x-2--------x-x--4---------2----2----|
A|--2------x-0--------x-x--2---------0----2----|
E|----------------------------------------0----|
   "Everyone..."

BRIDGE
e|---------------------------------|
B|---------------------------------|
G|------------2------------2-------|
D|--5---------2-----5------2-------|
A|--5---------0-----5------0-------|
E|--3---------------3--------------|
   "You lead..."

CHORUS
e|--------------------------------|
B|--------------------------------|
G|----7----------3-3-------5------|
D|----7----------3-3--3-3--5------|
A|----5----------1-1--3-3--3------|
E|--------------------1-1---------|
   "It's a miracle you...

e|--------------------------------|
B|--------------------------------|
G|-------------------3-------5----|
D|-------------------3-------5----|
A|-------------------1-------3----|
E|--------------------------------|
   "It's a miracle I...

e|--------------------------------|
B|--------------------------------|
G|----7----------3-3-------5------|
D|----7----------3-3--3-3--5------|
A|----5----------1-1--3-3--3------|
E|--------------------1-1---------|
   "You're like a...

e|--------------------------|
B|--------------------------|
G|-------------3------------|
D|-------------3------------|
A|-------------1------------|
E|--------------------------|
  "You pass..."

VERSE 2

e|---------------------------------------------|
B|---------------------------------------------|
G|--4--4-4-4---2--2-2-2----4--4-4----2---------|
D|--4--4-4-4-x-2--2-2-2--x-4--4-4----2----2----|
A|--2--2-2-2-x-0--0-0-0--x-2--2-2----0----2----|
E|----------------------------------------0----|
   "I smelled...

e|---------------------------------------------|
B|---------------------------------------------|
G|--4--4-4-4---2--2-2-2----4--4-4----2---------|
D|--4--4-4-4-x-2--2-2-2--x-4--4-4----2----2----|
A|--2--2-2-2-x-0--0-0-0--x-2--2-2----0----2----|
E|----------------------------------------0----|
   "Cuz I longed...

BRIDGE
e|---------------------------------|
B|---------------------------------|
G|------------2------------2-------|
D|--5---------2-----5------2-------|
A|--5---------0-----5------0-------|
E|--3---------------3--------------|
   "You lead..."

CHORUS
e|--------------------------------|
B|--------------------------------|
G|----7----------3-3-------5------|
D|----7----------3-3--3-3--5------|
A|----5----------1-1--3-3--3------|
E|--------------------1-1---------|
   "It's a miracle you...

e|--------------------------------|
B|--------------------------------|
G|-------------------3-------5----|
D|-------------------3-------5----|
A|-------------------1-------3----|
E|--------------------------------|
   "It's a miracle I...

e|--------------------------------|
B|--------------------------------|
G|----7----------3-3-------5------|
D|----7----------3-3--3-3--5------|
A|----5----------1-1--3-3--3------|
E|--------------------1-1---------|
   "You're like a...

e|--------------------------|
B|--------------------------|
G|-------------3------------|
D|-------------3------------|
A|-------------1------------|
E|--------------------------|
  "You pass..."


Sorry,I don't have the solo :(
But maybe I'll come up with it later...


BRIDGE
e|-----------------------------------|
B|-----------------------------------|
G|-----------------------------------|
D|----5--5-5-5-5--5--5-5-5-5---------|
A|----5--5-5-5-5--5--5-5-5-5---------|
E|----3--3-3-3-3--3--3-3-3-3---------|
  "And I followed,yeah I followed..."

CHORUS
e|--------------------------------|
B|--------------------------------|
G|----7----------3-3-------5------|
D|----7----------3-3--3-3--5------|
A|----5----------1-1--3-3--3------|
E|--------------------1-1---------|
   "It's a miracle you...

e|--------------------------------|
B|--------------------------------|
G|-------------------3-------5----|
D|-------------------3-------5----|
A|-------------------1-------3----|
E|--------------------------------|
   "It's a miracle I...

e|--------------------------------|
B|--------------------------------|
G|----7----------3-3-------5------|
D|----7----------3-3--3-3--5------|
A|----5----------1-1--3-3--3------|
E|--------------------1-1---------|
   "You're like a...

e|--------------------------|
B|--------------------------|
G|-------------3------------|
D|-------------3------------|
A|-------------1------------|
E|--------------------------|
  "You pass..."

LAST CHORUS x2
e|--------------------------------|
B|--------------------------------|
G|---------------5-5-------7------|
D|---2-----------5-5--5-5--7------|
A|---2-----------3-3--5-5--5------|
E|---0----------------3-3---------|
   "It's a miracle you...

e|--------------------------------|
B|--------------------------------|
G|-------------------5-------7----|
D|-------------------5-------7----|
A|-------------------3-------5----|
E|--------------------------------|
   "It's a miracle I...

e|--------------------------------|
B|--------------------------------|
G|---------------5-5-------7------|
D|---2-----------5-5--5-5--7------|
A|---2-----------3-3--5-5--5------|
E|---0----------------3-3---------|
   "You're like a...

e|--------------------------|
B|--------------------------|
G|-------------5------------|
D|-------------5------------|
A|-------------3------------|
E|--------------------------|
  "You pass..."

That's all:)
Tap to rate this tab
# A B C D E F G H I J K L M N O P Q R S T U V W X Y Z