Song name
# A B C D E F G H I J K L M N O P Q R S T U V W X Y Z

Crashdiet - So Alive tab

So Alive - Crashdiet (Generation Wild)

D Tuning/ 1 step down/ DGCFAE

Intro

Guitar 1
E-------------------------------------------------------------|
B-------------------------------------------------------------|
G-------------------------------------------------------------|
D-------------------------------------------------------------|
A--2-2-2-2-2-2-2-2-2-2-2-2-2-2-2-2-2-2-2-2-2-2-2-2-2-2-2-2-2--|
E--0-0-0-0-0-0-0-0-0-0-0-0-0-0-0-0-0-0-0-0-0-0-0-0-0-0-0-0-0--| x4

Guitar 2
E-------------------------------------------------------------|
B-------------------------------------------------------------|
G-----------------------------------5----------7---------7-5--|
D-----------------------------------5----------7---------7-5--|
A--2-2-2-2-2-2-2-2-2-2-2-2-2-2-2-2--3----------5---------5-3--|
E--0-0-0-0-0-0-0-0-0-0-0-0-0-0-0-0----------------------------| x4

Guitar 3
(starts when the other guitars have played their thing 2 times)

E-------------------------------------|
B---5---7-----10---7------5-------7---|
G---7b--9b----12b--9b-----7b------9b--|
D-------------------------------------|
A-------------------------------------|
E-------------------------------------| x2

Vers
E-------------------------------|
B-------------------------------|
G------9-----4-----7-----2-2-4--|
D------9-----4-----7-----2-2-4--|
A------7-----2-----5-----0-0-2--|
E--0-0---0-0---0-0---0-0--------|

Pre-Chorus:

E-------------------------------------------------------|
B-------------------------------------------------------|
G--5--7--9----5--7--9----5--7-------5-5-5-5-5-5-5-5-5---|
D--5--7--9----5--7--9----5--7--2----5-5-5-5-5-5-5-5-5---|
A--3--5--7----3--5--7----3--5--2----3-3-3-3-3-3-3-3-3---|
E------------------------------0------------------------|

Chorus:

Im alive                When the night falls On the city lights
E---------------------------------------------------------------|
B---------------------------------------------------------------|
G----------------5-5-5-5--2--2--2--2--2--2--2------------7--7---|
D------2-2-2-2-2-5-5-5-5--2--2--2--2--2--2--2------5--5--7--7---|
A------2-2-2-2-2-3-3-3-3--0--0--0--0--0--0--0------5--5--5--5---|
E------0-0-0-0-0-----------------------------------3--3---------|

        Im so alive    Im out of control But it feels so right                So Alive
E------------------------------------------------------------------------------------|
B------------------------------------------------------------------------------------|
G------------5-5-5-5--2--2--2--2--2--2--2------------7--7----------------------------|
D--2-2-2-2-2-5-5-5-5--2--2--2--2--2--2--2------5--5--7--7------9---7---5---5---5--4--|
A--2-2-2-2-2-3-3-3-3--0--0--0--0--0--0--0------5--5--5--5----------------------5--4--|
E--0-0-0-0-0-----------------------------------3--3-----------0---0---0---0----3--2--|

E-------------------------------|
B-------------------------------|
G------9-----4-----7-----2-2-4--|
D------9-----4-----7-----2-2-4--|
A------7-----2-----5-----0-0-2--|
E--0-0---0-0---0-0---0-0--------|

Bridge(before solo):

E-------------------------------------|
B-------------------------------------|
G--2-2-2-2-2-2-2-2--------------------|
D--2-2-2-2-2-2-2-2--3-3-3-3--5-5-5-5--|
A--0-0-0-0-0-0-0-0--3-3-3-3--5-5-5-5--|
E-------------------1-1-1-1--3-3-3-3--| x2

E-------------------------------------|
B-------------------------------------|
G--4-4-4-4-4-4-4-4--------------------|
D--4-4-4-4-4-4-4-4--5-5-5-5--7-7-7-7--|
A--2-2-2-2-2-2-2-2--5-5-5-5--7-7-7-7--|
E-------------------3-3-3-3--5-5-5-5--| x2

Solo Rythm:

E--------------------------------------|
B--------------------------------------|
G--6-6-6-6-6-6-6-6---------------------|
D--6-6-6-6-6-6-6-6--7-7-7-7--9-9-9-9---|
A--4-4-4-4-4-4-4-4--7-7-7-7--9-9-9-9---|
E-------------------5-5-5-5--7-7-7-7---| x4

And thats it maybe i will tab the solo later :)
Tap to rate this tab
 
# A B C D E F G H I J K L M N O P Q R S T U V W X Y Z