Guitaretab - guitar tabs
Song name
# A B C D E F G H I J K L M N O P Q R S T U V W X Y Z

Creature Feature - A Gorey Demise tab

-------------------------------------------------------------------------------
			     A Gorey Demise - Creature Feature
-------------------------------------------------------------------------------
Tabbed by:Hughf
Email:freemanfamily2005@hotmail.com

Tuning: Standard
[ Tab from: http://www.guitaretab.com/c/creature-feature/102909.html ]
 Intro/Chorus
e|---------------------------------------------------------------------------|
B|---------------------------------------------------------------------------|
G|-99-88----------99-88--1212-1111--99-88--------------9\8-12\11-9-----------|
D|-xx-xx-1010-99--xx-xx---x-x--x-x--xx-xx-1010-99-10\9-x\x--x\x--x-----------|
A|-77-66--x-x-xx--77-66--1010--9-9--77-66--x-x-xx--x\x-7\6-10\9--7-----------|
E|--------8-8-77---------------------------8-8-77--8\7-----------------------|

 Bridge:
e|---------------------------------------------------------------------------|
B|---------------------------------------------------------------------------|
G|-9\8/9-11/12\11-9--9\8-8/9/12--9\8/9-11/12\11-9--16-8-9--------------------|
D|-x\x/x--x/-x\x--x--x\x-x/x/-x--x\x/x--x/-x\x--x---x-x-x--------------------|
A|-7\6/7--9/10\9--7--7\6-6/7/10--7\6/7--9/10\9--7--14-6-7--------------------|
E|---------------------------------------------------------------------------|

Note: The verse is made up of the bass notes from the chords played in the intro/chorus.



| /  slide up
| \  slide down
| h  hammer-on
| p  pull-off
| ~  vibrato
| +  harmonic
| x  Mute note
===============================================================================
Related for A Gorey Demise tab
A Gorey Demise chords by Creature Feature