Song name
# A B C D E F G H I J K L M N O P Q R S T U V W X Y Z

Creed - Bullets tab

Artsit: Creed
Song: 01 - Bullets
Album - Weathered
Transcriber: Pete

Sick song, and their heaviest
D-A-D-G-B-E

Intro
-----------------------------------------------------------------
-----------------------------------------------------------------
-----------------------------------------------------------------
-----------------------------------------------------------------
-----------------------------------------------------------------
-13-0-0-0-0-12-0-0-0-0-15-0-0-0-0--13-0-0-0-12-------------------

Verse
-----------------------------------------------------------------
-----------------------------------------------------------------
-----------------------------------------------------------------
-----------------------------------------------------------------
-----------------------------------------------------------------
-13-0-0-0-0-12-0-0-0-0-15-0-0-0-0--13-0-0-0-12-------------------
|-------------------PM------------------------|

Chorus
------------------------------------------------------------------------
------------------------------------------------------------------------
------------------------------------------------------------------------
--------------0---------------0-0-0---------------0---------------------
--------------0---------------0-0-0---------------0---------------------
-1-0-1-0-1-0--0--1-0-1-0-1-0--0-0-0--1-0-1-0-1-0--0--1-0-1-0-1-0--12-13-
|----PM-----|   |-----PM------------------------|   |----PM-----|

Verse
-----------------------------------------------------------------
-----------------------------------------------------------------
-----------------------------------------------------------------
-----------------------------------------------------------------
-----------------------------------------------------------------
-13-0-0-0-0-12-0-0-0-0-15-0-0-0-0--13-0-0-0-12-------------------
|-------------------PM------------------------|

Chorus
------------------------------------------------------------------------
------------------------------------------------------------------------
------------------------------------------------------------------------
--------------0---------------0-0-0---------------0---------------------
--------------0---------------0-0-0---------------0---------------------
-1-0-1-0-1-0--0--1-0-1-0-1-0--0-0-0--1-0-1-0-1-0--0--1-0-1-0-1-0--12-13-
|----PM-----|   |-----PM------------------------|   |----PM-----|

Bridge
-----------------------------------------------------------------------------
-----------------------------------------------------------------------------
-------------------------------------------------------------p---------h-----
----------------------------------------------------------13---12-0-10---12--
----p---------h--------p---------h--------p---------h-----13---12-0-10---12--
-13---12-0-10---12--13---12-0-10---12--13---12-0-10---12--13---12-0-10---12--

Interlude
-----------------------------------------------------------------
-----------------------------------------------------------------
-1-/-15--15-/-21--14-14-15-12-12-15-14-14-15-17-17-15-14---------
-----------------------------------------------------------------
-----------------------------------------------------------------
-----------------------------------------------------------------                                                                  
----------------------------------------------------------------------
--------------------------------------------------------------14-15-17
14-14-15-12-12-15-14-14-15-17------------14-14-15-12-12-15-14---------
-----------------------------------------0--0--0--0--0--0--0----------
----------------------------------------------------------------------
-------------------------------0-0-0-0--------------------------------

Chorus
------------------------------------------------------------------------
------------------------------------------------------------------------
------------------------------------------------------------------------
--------------0---------------0-0-0---------------0---------------------
--------------0---------------0-0-0---------------0---------------------
-1-0-1-0-1-0--0--1-0-1-0-1-0--0-0-0--1-0-1-0-1-0--0--1-0-1-0-1-0--12-13-
|----PM-----|   |-----PM------------------------|   |----PM-----|

Bridge
-----------------------------------------------------------------------------
-----------------------------------------------------------------------------
-------------------------------------------------------------p---------h-----
----------------------------------------------------------13---12-0-10---12--
----p---------h--------p---------h--------p---------h-----13---12-0-10---12--
-13---12-0-10---12--13---12-0-10---12--13---12-0-10---12--13---12-0-10---12--
Tap to rate this tab
# A B C D E F G H I J K L M N O P Q R S T U V W X Y Z