Guitaretab - guitar tabs
Song name
# A B C D E F G H I J K L M N O P Q R S T U V W X Y Z

Creed - Bullets tab

Drop D tuning (from low to high) DADGBE

guitar notation
/=slide up
\=slide down
P.M.----=Palm Muting
H=Hammer on
P=pulloff

 A little advice, there is a lot of alternate picking and paml muting in this song so keep your wrist loose so you won't get fatique in ur forearm....few of us have done that one before......Mark uses a wah-wah pedla as an envelope filter which could be done by slowly rocking he pedal back and forth.

Figure 1
E-----------------------------------------------------------------------------
B-----------------------------------------------------------------------------
G-----------------------------------------------------------------------------
D-----------------------------------------------------------------------------
A-----------------------------------------------------------------------------
D-o-o-o-o-o-o-o-o-o-o-o-o-o-o-o-o-o-o-o-o-o-o-o-o-o-o-o-o-o-o-o-o-o-o-o-o-o-o-

this part is looselt played along wiht the bass

Figure 2
E-----------------------------------------------------------------------------
B-----------------------------------------------------------------------------
G-----------------------------------------------------------------------------
D-----------------------------------------------------------------------------
A12-12-12-12---------------------12-12-12-12-12----13-13-13-13----------------
D-0--0--0--0--0-0-0-0-0-0-0-0-0---0--0--0--0--0-0-0-0--0--0--0--0-0-0-0-0-0-0-

E-----------------------------------------------------------------------------
B-----------------------------------------------------------------------------
G-----------------------------------------------------------------------------
D-----------------------------------------------------------------------------
A-13-13-12-12-----10-10-10-10---------10-12-13P12-12-12-12-12-----------------
D--0--0--0--0-0-0--0--0--0--0-0-0-0-0--0--0--0--0--0--0--0--0-----------------

Figure 3

E-----------------------------------------------------------------------------
B-----------------------------------------------------------------------------
G---------------------------------------------------------------12-12-12-12---
D----------14-14-14-14-----14-14-14-14-14-15-15-15-15------------x--x--x--x---
A----------12-12-12-12-----12-13-13-13-13-13-13-13-13-----------10-10-10-10---
D--0-0-0-0--0--0--0--0-0-0--0--0--0--0--0--0--0--0--0-0-0-0-0-0--0--0--0--0---

E----------------------------
B----------------------------
G--12/14-14-15-15-15-17-17-17
D---x--x--x--x--x--x--x--x--x
A--10-12-12-13-13-13-15-15-15
D---0--0--0--0--0--0--0--0--0

Figure 4  triplets man, trust me. after the first couple of times, palm mute it

E----------------------------------------------------------
B----------------------------------------------------------
G----------------------------------------------------------
D----------------------------------------------------------
A-----------------15------------13-------------------------
D--13-12-0-12-0-12--12-0-12-0-12--12-0-12-0-0-13-12-0-10-12

Figure 5
E------------------------------------------------------------------------------
B------------------------------------------------------------------------------
G------------------------------------------------------------------------------
D------0-1-0-1-0-1---0--0-1-0-1-0-1--1-0-0--0-1-0-1-0-1---0--0-1-0-1-0-1--1-0-0
A------0-1-0-1-0-1---0--0-1-0-1-0-1--1-0-0--0-1-0-1-0-1---0--0-1-0-1-0-1--1-0-0
D------0-1-0-1-0-1---0--0-1-0-1-0-1--1-0-0--0-1-0-1-0-1---0--0-1-0-1-0-1--1-0-0
  P.M.------------      -------------------------------      ------------------

E------------------------------------------------------------------------------
B------------------------------------------------------------------------------
G------------------------------------------------------------------------------
D------0-1-0-1-0-1---0--0-1-0-1-0-1--1-0-0--0-1-0-1-0-1---0--0-1-0-1-0-1--1----
A------0-1-0-1-0-1---0--0-1-0-1-0-1--1-0-0--0-1-0-1-0-1---0--0-1-0-1-0-1-------
D------0-1-0-1-0-1---0--0-1-0-1-0-1--1-0-0--0-1-0-1-0-1---0--0-1-0-1-0-1-----3-
  P.M.------------      -------------------------------      -----------

E------------------------------------------------------------------------------
B------------------------------------------------------------------------------
G------------------------------------------------------------------------------
D------0-1-0-1-0-1---0--0-1-0-1-0-1--1-0-0--0-1-0-1-0-1---0--0-1-0-1-0-1--1-0-0
A------0-1-0-1-0-1---0--0-1-0-1-0-1--1-0-0--0-1-0-1-0-1---0--0-1-0-1-0-1--1-0-0
D------0-1-0-1-0-1---0--0-1-0-1-0-1--1-0-0--0-1-0-1-0-1---0--0-1-0-1-0-1--1-0-0
  P.M.------------      -------------------------------      ------------------

Figure 6
E--------------------------------------------------
B--------------------------------------------------
G--------------------------------------------------
D----13-12-0-10-12-13-12-0-10-12-13-12-0-10-12--0-0-0
A----13-12-0-10-12-13-12-0-10-12-13-12-0-10-12--0-0-0
D----13-12-0-10-12-13-12-0-10-12-13-12-0-10-12--0-0-0
 P.M.                                           -----

Figure 7 if you don't have a whammy bar your s.o.l. 

E-----------------------------------------------------------------------------
B-----------------------------------------------------------------------------
G-----------------------------------------------------------------------------
D-----------------------------------------------------------------------------
A-----5-------------------------------------7------(7)------------------------
D-----5-----------------------------------------------------------------------
  take this down -1 1/2 stepsand back up    -1     +1 1/2 (raise bar)

E-----------------------------------------------------------------------------
B-----------------------------------------------------------------------------
G---------------------------------------5-------------------------------------
D-----7--------------(7)---------(7)------------------------------------------
A-----------------------------------------------------------------------------
D-----------------------------------------------------------------------------
     -1            raise bar      +1/2  -1 1/2

Figure 8

E------------------------------------------------------------------------------
B------------------------------------------------------------------------------
G---------------------------------------------------12-12-12-12-12-12-12-12-12-
D------------14-----14-----14-----15-----15-----15---x--x--x--x--x--x--x--x--x
A------0-0-0-12-0-0-12-0-0-13-0-0-13-0-0-13-0-0-13--10-10-10-10-10-10-10-10-10
D------0-0-0--0-0-0--0-0-0--0-0-0--0-0-0--0-0-0--0---0--0--0--0--0--0--0--0--0
  P.M.------    ---    ---    ---    ---    ---

E------------------------------------------------------------------------------
B------------------------------------------------------------------------------
G--12/14-14-14-14-14-15-15-15-17-17-17-----------------------------------------
D---x--x--x--x--x--x--x--x--x--x--x--x-----------------------------------------
A--10/12-12-12-12-12-13-13-13-15-15-15-----------------------------------------
D---0--0--0--0--0--0--0--0--0--0--0--0-----------------------------------------

Figure 9

E-----------------
B-----------------
G-----------------
D--0--------------
A--0--------------
D--0--------------

Figure 1 x2 (clean with envelope filter)
Figure 2 x2 (clean with envelope filter)
Figure 3 x1 (clean)
Figure 4 x10(heavy distortion)
Figure 5 x1 (heavy distortion)
Figure 4 x8 (heavy distortion)
Figure 5 x1 (heavy distortion)
Figure 6 x3 (heavy distortion)
Figure 7 x1 (heavy distortion)
Figure 2 x1 (clean)
Figure 8 x1 (heavy distortion)
Figure 5 x2 (heavy distortion)
Figure 6 x3 (heavy distortion)
Figure 9 x1 (heavy distortion)
[ Tab from: http://www.guitaretab.com/c/creed/22640.html ]
Related for Bullets tab
Advertisement will be closed in 10 seconds