Song name
# A B C D E F G H I J K L M N O P Q R S T U V W X Y Z

Creed - Lullaby tab

Standard Tuning

Riff A:

e-------------------|-------0----------------|
B-3-2-0-2-0--0------|-3-2-0---3-2-------3/5--|
G----------2--2-2---|-------------2h4p2------|
D-------------------|------------------------|
A-------------------|------------------------|
E-------------------|------------------------|

Riff B:

e-----------|-------|
B-----0-----|-------|
G-0-----2---|-0-----|
D---4-----4-|---4-0-|
A-----------|-------|
E-----------|-------|

Riff C:

e------------------|
B-----0---3-2-2-0--|
G-0-----2----------|
D---4--------------|
A------------------|
E------------------|

Riff D:


e-2-3------|
B----2-2h3-|
G----------|
D----------|
A----------|
E----------|


Riff E:

e---------------|
B---------------|
G-0-------------|
D---4-----0-0---|
A-----0-4-------|
E---------------|

[Riff A] x3
[Riff B]
[Riff C] x2
[Riff D]
[Riff B] x3
[Riff E]
[Riff A] x3
[Riff B]
[Riff C] x2
[Riff D] x9
[Riff E] 
Tap to rate this tab
# A B C D E F G H I J K L M N O P Q R S T U V W X Y Z