Song name
# A B C D E F G H I J K L M N O P Q R S T U V W X Y Z

Creed - My Sacrifice tab

creed
my sacrifice

tabbed by therealone

ok.I,ve never tabbed a song,but this one i had to do because i havent seen the right version yet.true,while there are many ways to play this song and it sound good,,the versions i ve seen are not the way mark plays this song.if you play this like it says,i guarantee you ll be happy.here we go!!!

dadadd tuning

intro(fingerpicked)

d-------------0-------------------------------0-------------------------------
d---------------0--------------------0----------0-----------------------------
a-----4-----------4--------------------12---------12--------------------------
d-------4-----------4---------------------12--------12------------------------
a--2------2--------------------0 10-------------------------------------------
d-----------------------------------------------------------------------------
   (lightly play)
d--0--0--0-0-0-0-0-----0-0-0-0-0----------0-0---0-0-----------------0---------
d--0--0--0-0-0-0-0-----0-0-0-0-0----------0-0---0-0-------------------0-------
a--0--0--5\4-4-5-5-----0\4\5\4-4-slide to-9-9---9\10---------4----------4-----
d--0--0--0-0-0-0-0-----0-0-0-0-0----------0-0---0-0------------4----------4---
a--0--0--5\4-4-5-5-----0\4\5\4-4-slide to-9-9---9\10-----2-------2------------
d--0--0--0-0-0-0-0-----0-0-0-0-0----------0-0---0-0---0-----------------------

d------------------0----------------------------------------------------------
d--------0-----------0--------------------------------------------------------
a----------12----------12-----------------------------------------------------
d-------------12---------12---------------------------------------------------
a-----------------------------------------------------------------------------
d-0--10-----------------------------------------------------------------------

preverse and verse(distortion) i didnt tab the exact strummings on the verses and chorus,but theres plenty here to show you what im trying to explain.i just put down the nessecary chords to show how to play it.listen to the song to figure out the exact amount of strums mark uses.if you d like,strum all strings once without touching any fret(open d) before starting.it sounds good,and mark does it this way live when he plays this on accoustic.on the 5\ parts(look below),slide back and forth.dont lift fingers off any for this part.

d-0-0-0-0-0--0-0-0-0--0-0-0--0-0-0-0-0--0--0-0-0-----------
d-0-0-0-0-0--0-0-0-0--0-0-0--0-0-0-0-0--0--0-0-0-----------
a-5\4-4\5-5--5\4\5-5--5\7\5--5\4-4\5-5--5\-4\5-5--0--0-----
d-0-0-0-0-0--0-0-0-0--0-0-0--0-0-0-0-0--0--0-0-0--0--0-----
a-5\4-4\5-5--5\4\5-5--5\7\5--5\4-4\5-5--5\-4\5-5--0--0-----
d-0-0-0-0-0--0-0-0-0--0-0-0--0-0-0-0-0--0--0-0-0--0--0-----

d--0---0-0-0-0--0-----0-0-0-0-0----0--0----------
d--0---0-0-0-0--0-----0-0-0-0-0----0--0----------
a--0---0-0-0-0--0--0--0-0-0-0-0----0--0----------
d--9- -9-9-9-9--9\-0--5-5-5-5-5----5--5----------
a--9- -9-9-9-9--9\-0--5-5-5-5-5----5--5----------
d--9- -9-9-9-9--9\-0--5-5-5-5-5----5--5----------

d-0-0-0-0-0--0-0-0-0--0-0-0--0-0-0-0-0--0--0-0-0-----------
d-0-0-0-0-0--0-0-0-0--0-0-0--0-0-0-0-0--0--0-0-0-----------
a-5\4-4\5-5--5\4\5-5--5\7\5--5\4-4\5-5--5\-4\5-5--0--0-----
d-0-0-0-0-0--0-0-0-0--0-0-0--0-0-0-0-0--0--0-0-0--0--0-----
a-5\4-4\5-5--5\4\5-5--5\7\5--5\4-4\5-5--5\-4\5-5--0--0-----
d-0-0-0-0-0--0-0-0-0--0-0-0--0-0-0-0-0--0--0-0-0--0--0-----

d--0---0-0-0-0--0-----0-0-0-0-0----0--0----------
d--0---0-0-0-0--0-----0-0-0-0-0----0--0----------
a--0---0-0-0-0--0--0--0-0-0-0-0----0--0----------
d--9- -9-9-9-9--9\-0--5-5-5-5-5----5--5----------
a--9- -9-9-9-9--9\-0--5-5-5-5-5----5--5----------
d--9- -9-9-9-9--9\-0--5-5-5-5-5----5--5----------

chorus-listen closely.this is the way its played.
when you are with...and
above all the others...              

              d-0--0--0---0-------7-5-4------0--0--0--0--0--0--0---0--0
              d-0--0--0---0-------0-0-0------0--0--0--0--0--0--0---0--0
              a-0--0--0---0---0---0-0-0---0--0--0--0--0--0--0--0---0--0
              d-12-12-12--12--0---0-0-0---0--7--7--7--7--7--7--7---7--7
              a-12-12-12--12--0-----------0--4--4--4--4--4--4--4---4--4
              d-12-12-12--12--0-----------0--0--0--0--0--0--0--0---0--0



     im careless...and
     which brings tears...         
              d--0--0--0--0--0--0--0---0-0-----------------
              d--0--0--0--0--0--0--0---0-0-----------------
              a--0--0--0--0--0--0--0---0-0-----------------
              d--9--9--9--9--9--9--9---9-9-----------------
              a--9--9--9--9--9--9--9---9-9-----------------
              d--9--9--9--9--9--9--9---9-9-----------------

      i believe

              d--0--0-0--0----------------------
              d--0--0-0--0----------------------
              a--0--0-0--0----------------------
              d--5--5-5--5--0--5--3--0-3--3-0---
              a--5--5-5--5--0--5--3--0-3--3-0---
              d--5--5-5--5--0--5--3--0-3--3-0---

that is how the distorted chorus is played.
the clean is played the same way,only on this part:
                        (HERE)
    d-0--0--0---0-------7-5-4------0--0--0--0--0--0--0---0--0
    d-0--0--0---0-------0-0-0------0--0--0--0--0--0--0---0--0
    a-0--0--0---0---0---0-0-0---0--0--0--0--0--0--0--0---0--0
    d-12-12-12--12--0---0-0-0---0--7--7--7--7--7--7--7---7--7
    a-12-12-12--12--0-----------0--4--4--4--4--4--4--4---4--4
    d-12-12-12--12--0-----------0--0--0--0--0--0--0--0---0--0

dont strum the 7 5 4.only hit the 7.

bridge-slide the whole time.fingers should not leave the guitar.palm mute the open d string.i think this is pretty damn close on the strums.

d----0-0-0-0-----0-0-0-0----0-0-0-0-----0-----0--0--0-0-0--0-0--0-0-
d----0-0-0-0-----0-0-0-0----0-0-0-0-----0-----0--0--0-0-0--0-0--0-0-
a----9\7-7-7-----7\5-5-5----5\4-4-4-----2slide4--4--5-5-5--7-7--5-5-
d----0-0-0-0-----0-0-0-0----0-0-0-0-----0-----0--0--0-0-0--0-0--0-0-
a----9\7-7-7-----7\5-5-5----5\4-4-4-----2slide4--4--5-5-5--7-7--5-5-
d-0--0-0-0-0--0--0-0-0-0--0-0-0-0-0--0--0-----0--0--0-0-0--0-0--0-0-

 pm          pm          pm         pm
d----0-0-0-0-----0-0-0-0----0-0-0-0-----0-----0--0--0-0-0--0-0--0-0-
d----0-0-0-0-----0-0-0-0----0-0-0-0-----0-----0--0--0-0-0--0-0--0-0-
a----9\7-7-7-----7\5-5-5----5\4-4-4-----2slide4--4--5-5-5--7-7--5-5-
d----0-0-0-0-----0-0-0-0----0-0-0-0-----0-----0--0--0-0-0--0-0--0-0-
a----9\7-7-7-----7\5-5-5----5\4-4-4-----2slide4--4--5-5-5--7-7--5-5-
d-0--0-0-0-0--0--0-0-0-0--0-0-0-0-0--0--0-----0--0--0-0-0--0-0--0-0-
 pm          pm          pm         pm

d--0--0--0--0------0--0--0--0----------
d--0--0--0--0------0--0--0--0----------
a--13-13-13-13-----13-13-13-13---------
d--0--0--0--0------0--0--0--0----------
a--13-13-13-13-----13-13-13-13---------
d--0--0--0--0--0---0--0--0--0----------
              pm 


d--0--0--0--0------0--0--0--0------------
d--0--0--0--0------0--0--0--0------------
a--13-13-13-13-----13-13-13-13-----------
d--0--0--0--0------0--0--0--0-----------0
a--13-13-13-13-----13-13-13-13----------0
d--0--0--0--0--0---0--0--0--0---0-0-0---0
              pm                (pm) 

outro-end on the d a d open strum as so
d-------------------------------------
d-------------------------------------
a-------------------------------------
d----------0--------------------------
a----------0--------------------------
d-0--0--0--0--------------------------
   (pm)

or,just end the song like the bridge ends same thing.well,thats my tab.mail me at kittles87@yahoo.com if you have questions or comments.i also have the tab of the live accoustic version of this song,and i have the song itself.mail me and i ll tell you how to download both the tab and song off me.play on!!!
Tap to rate this tab
 
# A B C D E F G H I J K L M N O P Q R S T U V W X Y Z