Song name
# A B C D E F G H I J K L M N O P Q R S T U V W X Y Z

Crooked X - Adrenaline tab

Artist: Crooked X
Song: Adrenaline (Intro)
Tuning: Half Step Down

Tablature Key:
. - Palm mute
~ - Let it ring


Intro pt. 1
------------------------------------------|
------------------------------------------|
------------------------------------------|
------------------------------------------|
-2-2-2-2-2-2-2-2--------------------------|
-0-0-0-0-0-0-0-0--------------------------|

intro pt. 2
----------------------------------------------|
----------------------------------------------|
----------------------------------------------|
----------------------------------------------|
-2-~-2-2-2-2-2-x2-then-5----------------------|
-0---0-0-0-0-0---------3----------------------|


-----------------------------------------------------|
-----------------------------------------------------|
-----------------------------------------------------|
-----------------------------------------------------|
-2-~-2-2-2-2-2---5-x2 then-2-2-2-2--5----------------|
-0---0-0-0-0-0---3---------0-0-0-0--3----------------|
                           . . . .

Lead Guitar
-------------------------------------------|
-------------------------------------------|
-------------------------------------------|
--7~-6~-5~-4~------------------------------|
-------------------------------------------|
-------------------------------------------|
Tap to rate this tab
 
# A B C D E F G H I J K L M N O P Q R S T U V W X Y Z