Song name
# A B C D E F G H I J K L M N O P Q R S T U V W X Y Z

Crooked X - Fade tab

Fade Outro
==========
Shoulda been the intro
Courtesy ===> Brandon Daunno


|---------------------------------------------------------------------|
|---------------------------------------------------------------------|
|-----5---7---5---8---5---7---5--------5---7---5---8---5---7---5------|
|---------------------------------------------------------------------|
|---------------------------------------------------------------------|
|-5-5---5---5---5---5---5---5------4-4---4---4---4---4---4---4--------|


|---------------------------------------------------------------------|
|---------3-------6-------3----------------5-------6---5-5-8----------|
|-----5-------5-------5-------5--------7-------7----------------------|
|---------------------------------------------------------------------|
|---------------------------------------------------------------------|
|-3-3---3---3---3---3---3---3------5-5---5---5---5---5----------------|


|---------------------------------------------------------------------|
|---------------------------------------------------------------------|
|-----5---7---5---8---5---7---5--------5---7---5---8---5---7---5------|
|---------------------------------------------------------------------|
|---------------------------------------------------------------------|
|-5-5---5---5---5---5---5---5------4-4---4---4---4---4---4---4--------|


|---------------------------------------------------------------------|
|---------3-------6-------3----------------5-------6-------8----------|
|-----5-------5-------5-------5--------7-------7-------7--------------|
|---------------------------------------------------------------------|
|---------------------------------------------------------------------|
|-3-3---3---3---3---3---3---3------5-5---5---5---5---5----------------|
Tap to rate this tab
# A B C D E F G H I J K L M N O P Q R S T U V W X Y Z