Song name
# A B C D E F G H I J K L M N O P Q R S T U V W X Y Z

Crooked X - Gone tab

-------------------------------------------------------------------------------
			     Gone - Crooked X
-------------------------------------------------------------------------------
Tabbed by:Caleb Robinson
Email:calebrobinson1@ymail.com

Tuning:Half Step Down
    ____2X___     ___________________X2___________________________
   |         |   |                                                | 
e|-0--0--0--0----------------------------------------------------------------|
B|-3--3--3--3----------------------------------------------------------------|
G|-2--3--4--5----------------------------------------------------------------|INTRO
D|-0--------------------------------------------------------5---5------------|
A|-0--------------------2p0-------2p0-x-3-------2p0-------x-2-x-3------------|
E|-0--------------0h3h5-----0h3h5-----x-3-0h3h5-----0h3h5-x---x--------------|

e|-0--0--0-------------------------------------------------------------------|
B|-3--3--3-------------------------------------------------------------------|Verse 1
G|-2--2--2-------------------------------------------------------------------|
D|-0--0--0--------5-7-------5x5x---------------------------------------------|
A|-0--3--2--0-0-x-3-5-0-0-0-2x3x---------------------------------------------|
E|-0--------0-0-x-----0-0-0--------------------------------------------------|

e|-------------------------------------------------|-------------------------|
B|-------------------------------------------------|-------------------------|
G|-------------------------------------------------|--5555--5555--Play this--|Pre Chorus
D|-------------------------3--33333-3333-3333-33---|--5555--5555--2nd time---|
A|-5--55555-5555-5555-55---1--11111-1111-1111-11---|--3333--3333-------------|
E|-5--55555-5555-5555-55---------------------------|-------------------------|
   _____________________X2______________________

e|-0--0--0--------------------0--0--0----------------------------------------|
B|-3--3--3--------------------3--3--3----------------------------------------|
G|-2--2--2--------------7*----2--2--2-------------------7*-------------------|Chorus
D|-0--0--0--------------------0--0--0----------------------------------------|
A|-0--3--2----3b----0---------0--3--2-----3b----0----------------------------|
E|-0-------------3b-0---------0--------------3b-0----------------------------|

e|---------------------------------------------------------------------------|
B|---------------------------------------------------------------------------|
G|----------------------Still Working on-------------------------------------|Solo
D|----------------------the solo, sorry--------------------------------------|
A|---------------------------------------------------------------------------|
E|---------------------------------------------------------------------------|
     
e|---------------------------------------------------------------------------|
B|---------------------------------------------------------------------------|
G|-------------------7b-------------------------------------------7b---------|Acoustic 
D|----0---0------5/7-------0---0----03-3p0----------0---0-----5/7------------|Breakdown
A|--3-------0-0----------3-------0---------3p0----3-------0-0----------------|
E|------3---0-0--------------3---0--------------------3---0-0----------------|
				
e|---------------------------------------------------------------------------|
B|---------------------------------------------------------------------------|
G|---------------------------------------------------------------------------|Breakdown
D|----0---0------------------------------------------------------------------|Contd.
A|--3-------0-0---3---0------------------------------------------------------|
E|------3---0-0-----3-0------------------------------------------------------|

e|---------------------------------------------------------------------------|
B|---------------------------------------------------------------------------|
G|---------------------------------------------------------------------------|Outro
D|--------------------------444--555-----------------------------------------|
A|--66--xx--00--xx--66--xx--222--333-----------------------------------------|
E|--66--xx--00--xx--66--xx---------------------------------------------------|


| /  slide up
| \  slide down
| h  hammer-on
| p  pull-off
| ~  vibrato
| +  harmonic
| x  Mute note
| *  Artificial Harmonic
===============================================================================

Order of Riffs:

Intro
Verse 1-2X
Pre Chorus
Chorus
Verse 1-2X
Pre Chorus
Chorus
Solo
Acoustic Breakdown-2X
Outro-3X
Tap to rate this tab
# A B C D E F G H I J K L M N O P Q R S T U V W X Y Z