Song name
# A B C D E F G H I J K L M N O P Q R S T U V W X Y Z

Crossfade - Lay Me Down tab

This is my first tab ever so some of the notes may be wrong if so, feel free to correct
them in the comment box below. I've seen Ed Sloan playing live through the youtube
videos and I think this is how he does it but like I have said before, if some of the 
notes are wrong feel free to correct them in the comment box.

Band: Crossfade
Song: Lay Me Down (Intro)
Album: We All Bleed

e|--------------------------------------------------|
B|--------------------------------------------------|
G|--------------------------------------------------|
D|-3-3-3-6-6-6-5-5-1--------------------------------|
A|-3-3-3-6-6-6-5-5-1-4-4-4-4-4-4-4------------------|
D|-3-3-3-6-6-6-5-5-1-1-1-1-1-1-1-1------------------|

e|--------------------------------------------------|
B|--------------------------3-----------------------|
G|-------------------2-3-2--------------------------|
D|-------------2-3-2--------------------------------|
A|-------2-3-2--------------------------------------|
D|-2-3-2--------------------------------------------|

e|--------------------------------------------------|
B|--------------------------------------------------|
G|--------------------------------------------------|
D|--------------------------------------------------|
A|-4-4-4-4-4-4~~~~~-4-------------------------------|
D|-1-1-1-1-1-1~~~~~-1-------------------------------|
Tap to rate this tab
# A B C D E F G H I J K L M N O P Q R S T U V W X Y Z