Song name
# A B C D E F G H I J K L M N O P Q R S T U V W X Y Z

Crossfade - Invincible tab

Drop D

Intro
|----------------------|
|----------------------|
|----------------------|
|-----7---------7b-----|
|---5---5-5---5----5-5-|
|-5------5--5-------5--|

Verse
|----------------------|
|----------------------|
|----------------------|
|-----7---------7b-----|
|---5---5-5---5----5-5-|
|-5------5--5-------5--|

|-------------------------------------|
|-------------------------------------|
|-------------------------------------|
|-------12------------10~--------12~--|
|----10----10--10---7---------10------|
|-10---------10---7--------10---------|

|-------------------------------|
|-------------------------------|
|-------------------------------|
|-----7---------7---------7b----|
|---5---5-5---5---5-5---5---5-5-|
|-5------5--5------5--5------5--|

|-------------------------------------|
|-------------------------------------|
|-------------------------------------|
|-------12------------10~--------12~--|
|----10----10--10---7---------10------|
|-10---------10---7--------10---------|

|--------------------------|
|--------------------------|
|--------------------------|
|-----7---------7b---------|
|---5---5-5---5------------|
|-5------5--5--------7/9b--|

Pre Chorus
|---------------------------------|
|---------------------------------|
|---------------------------------|
|-2-2-2-2-2-0-0-0-5-5-5-7-7-7-7-7-|
|-2-2-2-2-2-0-0-0-3-3-3-5-5-5-5-5-|
|-2-2-2-2-2-0-0-0-3-3-3-5-5-5-5-5-|

|---------------------------------|
|---------------------------------|
|---------------------------------|
|-2-2-2-2-2-0-0-0-5-5-5-7-7-7-7-7-|
|-2-2-2-2-2-0-0-0-3-3-3-5-5-5-5-5-|
|-2-2-2-2-2-0-0-0-3-3-3-5-5-5-5-5-|

|------------------------------------------|
|------------------------------------------|
|------------------------------------------|
|-2-2-2-2-2-0-0-0-5-5-5-7-7-7-7-7-5~-------|
|-2-2-2-2-2-0-0-0-3-3-3-5-5-5-5-5-3~-------|
|-2-2-2-2-2-0-0-0-3-3-3-5-5-5-5-5-3~-------|

Chorus
|----------------------------|
|----------------------------|
|----------------------------|
|-2-22-2-4-5-6-6-6-6-6-6-6-6-|
|-2-22-2-4-5-4-4-4-4-4-4-4-4-|
|-2-22-2-4-5-2-2-2-2-2-2-2-2-|

|----------------------------|
|----------------------------|
|----------------------------|
|-2-22-2-4-5-6-6-6-6-6-6-6-6-|
|-2-22-2-4-5-4-4-4-4-4-4-4-4-|
|-2-22-2-4-5-2-2-2-2-2-2-2-2-|

|----------------------------|
|----------------------------|
|----------------------------|
|-2-22-2-4-5-6-6-6-6-6-6-6-6-|
|-2-22-2-4-5-4-4-4-4-4-4-4-4-|
|-2-22-2-4-5-2-2-2-2-2-2-2-2-|

|----------------------------|
|----------------------------|
|----------------------------|
|-2-22-2-4-5-12~-------------|
|-2-22-2-4-5-10~-------------|
|-2-22-2-4-5-10~-------------|

Bridge Pt. 1 Distortion
|-----------------------------------------------------------------|
|-----------------------------------------------------------------|
|-----------------------------------------------------------------|
|-2-2-2-2-2-2-2-2-0-0-0-0-0-0-0-0-5-5-5-5-5-5-5-5-7-7-7-7-7-7-7-7-|
|-2-2-2-2-2-2-2-2-0-0-0-0-0-0-0-0-3-3-3-3-3-3-3-3-5-5-5-5-5-5-5-5-|
|-2-2-2-2-2-2-2-2-0-0-0-0-0-0-0-0-3-3-3-3-3-3-3-3-5-5-5-5-5-5-5-5-|

Bridge Pt. 2 Clean
|-----------------------------------------------------------------|
|-----------------------------------------------------------------|
|-----------------------------------------------------------------|
|-2-2-2-2-2-2-2-2-0-0-0-0-0-0-0-0-5-5-5-5-5-5-5-5-7-7-7-7-7-7-7-7-|
|-2-2-2-2-2-2-2-2-0-0-0-0-0-0-0-0-3-3-3-3-3-3-3-3-5-5-5-5-5-5-5-5-|
|-2-2-2-2-2-2-2-2-0-0-0-0-0-0-0-0-3-3-3-3-3-3-3-3-5-5-5-5-5-5-5-5-|
Tap to rate this tab
# A B C D E F G H I J K L M N O P Q R S T U V W X Y Z