Guitaretab - guitar tabs
Song name
# A B C D E F G H I J K L M N O P Q R S T U V W X Y Z

Crossfade - Washing The World Away tab

Crossfade - Washing the World Away

I KNOW. Incomplete. But i'm working on it. I need help tabbing the Pre-Chorus and the 
parts AND ALSO THE
FLIPIN CHORDS...Tq. PLs Rate.

Guitar 1(Acoustic/Clean)
Guitar 2(Distortion)

INTRO

Guitar 1

e|---------------------------------------------------------------------------------------|
b|---------------------------------------------------------------------------------------|
g|---------------------------------------------------------------------------------------|
d|---------------------------------------------------------------------------------------|
a|---------------------------------------------------------------------------------------|
d|---------------------------------------------------------------------------------------|
B|---------------------------------------------------------------------------------------|

Guitar 2
e|---------------------------------------------------------------------------------------|
b|---------------------------------------------------------------------------------------|
g|---------------------------------------------------------------------------------------|
d|---------------------------------------------------------------------------------------|
a|---------------------------------------------------------------------------------------|
d|---------------------------------------------------------------------------------------|
B|-0-1-7-6-0-5b(7)~~--0-5b(7)~~--0-1-7-6-0-4b(6)~~--0-4b(6)~~~---------------------------|

e|---------------------------------------------------------------------------------------|
b|---------------------------------------------------------------------------------------|
g|---------------------------------------------------------------------------------------|
d|---------------------------------------------------------------------------------------|
a|---------------------------------------------------------------------------------------|
d|---------------------------------------------------------------------------------------|
B|-0-1-7-6-0-[5]b(7)~~--0-[5]b(7)~~--0-1-7-6-0-[4]b(6)~~--0-[4]b(6)~~~---0-1-7-6-0-------|

VERSE

Guitar 1
e|---------------------------------------------------------------------------------------|
b|---------------------------------------------------------------------------------------|
g|---------------------------------------------------------------------------------------|
d|---------------------------------------------------------------------------------------|
a|---------------------------------------------------------------------------------------|
d|---------------------------------------------------------------------------------------|
B|---------------------------------------------------------------------------------------|

e|---------------------------------------------------------------------------------------|
b|---------------------------------------------------------------------------------------|
g|---------------------------------------------------------------------------------------|
d|---------------------------------------------------------------------------------------|
a|---------------------------------------------------------------------------------------|
d|---------------------------------------------------------------------------------------|
B|---------------------------------------------------------------------------------------|

Guitar 2
e|---------------------------------------------------------------------------------------|
b|--/11-11-11--7-7--6-6--0-0--6-6--7-7--/13-13-13--7-7--6-6-6-6-0-6----------------------|
g|---------------------------------------------------------------------------------------|
d|---------------------------------------------------------------------------------------|
a|---------------------------------------------------------------------------------------|
d|---------------------------------------------------------------------------------------|
B|---------------------------------------------------------------------------------------|

e|---------------------------------------------------------------------------------------|
b|--/11-11-11--7-7--6-6--0-0--6-6--7-7--/13-13-13--7-7--6-6-6-6-0-6----------------------|
g|---------------------------------------------------------------------------------------|
d|---------------------------------------------------------------------------------------|
a|---------------------------------------------------------------------------------------|
d|---------------------------------------------------------------------------------------|
B|---------------------------------------------------------------------------------------|

PRECHORUS

Guitar 2
e|---------------------------------------------------------------------------------------|
b|---------------------------------------------------------------------------------------|
g|---------------------------------------------------------------------------------------|
d|---------------------------------------------------------------------------------------|
a|---------------------------------------------------------------------------------------|
d|---------------------------------------------------------------------------------------|
B|---------------------------------------------------------------------------------------|
[ Tab from: http://www.guitaretab.com/c/crossfade/100750.html ]
e|---------------------------------------------------------------------------------------|
b|---------------------------------------------------------------------------------------|
g|---------------------------------------------------------------------------------------|
d|---------------------------------------------------------------------------------------|
a|---------------------------------------------------------------------------------------|
d|---------------------------------------------------------------------------------------|
B|---------------------------------------------------------------------------------------|

CHORUS

e|---------------------------------------------------------------------------------------|
b|---------------------------------------------------------------------------------------|
g|---------------------------------------------------------------------------------------|
d|---------------------------------------------------------------------------------------|
a|---------------------------------------------------------------------------------------|
d|---------------------------------------------------------------------------------------|
B|---------------------------------------------------------------------------------------|


e|---------------------------------------------------------------------------------------|
b|---------------------------------------------------------------------------------------|
g|---------------------------------------------------------------------------------------|
d|---------------------------------------------------------------------------------------|
a|---------------------------------------------------------------------------------------|
d|---------------------------------------------------------------------------------------|
B|---------------------------------------------------------------------------------------|


e|---------------------------------------------------------------------------------------|
b|---------------------------------------------------------------------------------------|
g|---------------------------------------------------------------------------------------|
d|---------------------------------------------------------------------------------------|
a|---------------------------------------------------------------------------------------|
d|---------------------------------------------------------------------------------------|
B|---------------------------------------------------------------------------------------|

BRIDGE

Guitar 1
e|---------------------------------------------------------------------------------------|
b|---------------------------------------------------------------------------------------|
g|---------------------------------------------------------------------------------------|
d|---------------------------------------------------------------------------------------|
a|---------------------------------------------------------------------------------------|
d|---------------------------------------------------------------------------------------|
B|---------------------------------------------------------------------------------------|


Guitar 2
e|---------------------------------------------------------------------------------------|
b|---------------------------------------------------------------------------------------|
g|---------------------------------------------------------------------------------------|
d|---------------------------------------------------------------------------------------|
a|---------------------------------------------------------------------------------------|
d|---------------------------------------------------------------------------------------|
B|--/11-11-11--7-7--6-6--0-0--6-6--7-7--/13-13-13--7-7--6-6-6-6-0-6----------------------|

Guitar 3
e|-------------------------------------------------------------------|
b|--/11-11-11--7-7--6-6--0-0--6-6--7-7--/13-13-13--7-7--6-6-6-6-0-6--|
g|-------------------------------------------------------------------|
d|-------------------------------------------------------------------|
a|-------------------------------------------------------------------|
d|-------------------------------------------------------------------|
B|-------------------------------------------------------------------|


Guitar 2
e|---------------------------------------------------------------------------------------|
b|---------------------------------------------------------------------------------------|
g|---------------------------------------------------------------------------------------|
d|---------------------------------------------------------------------------------------|
a|---------------------------------------------------------------------------------------|
d|---------------------------------------------------------------------------------------|
B|--/11-11-11--7-7--6-6--0-0--6-6--7-7--/13-13-13--7-7--6-6-6-6-0-6----------------------|

Guitar 3
e|-------------------------------------------------------------------|
b|--/11-11-11--7-7--6-6--0-0--6-6--7-7--/13-13-13--7-7--6-6-6-6-0-6--|
g|-------------------------------------------------------------------|
d|-------------------------------------------------------------------|
a|-------------------------------------------------------------------|
d|-------------------------------------------------------------------|
B|-------------------------------------------------------------------|


Tablature Legend
----------------
 h   - hammer-on
 p   - pull-off
 b   - bend
 pb  - pre-bend
 r   - bend release (if no number after the r, then release immediately)
 /\  - slide into or out of (from/to "nowhere")
 s   - legato slide
 S   - shift slide
 - natural harmonic
[n]  - artificial harmonic
n(n) - tapped harmonic
 ~   - vibrato
 tr  - trill
 T   - tap
 TP  - trem. picking
 PM  - palm muting
\n/  - tremolo bar dip; n = amount to dip
 \n  - tremolo bar down
 n/  - tremolo bar up
/n\  - tremolo bar inverted dip
 =   - hold bend; also acts as connecting device for hammers/pulls
 <> - volume swell (louder/softer)
 x   - on rhythm slash represents muted slash
 o   - on rhythm slash represents single note slash
Related for Washing The World Away tab
Advertisement will be closed in 10 seconds