Song name
# A B C D E F G H I J K L M N O P Q R S T U V W X Y Z

Crossfade - No Giving Up tab

Help us improve GuitareTab! Take a short survey!
Since this is meant to be played on a seven string, I'll include the intro version for a 
string and one for a seven string.  There isnt much difference if your gonna play the 
on a six string anyways.  I know its only the intro but its all I can figure out at the moment, thanks.

-Edit- Made a few mistakes when submiting the tab, corrected them, sorry about that.

[Six String Version] DADGBe

e|-------------------------------------------------------------------------|
B|-------------------------------------------------------------------------|
G|-6-6-6-6-6-6-----2-2-2-2-2-2---------------------------------------------|
D|-4-4-4-4-4-4-----0-0-0-0-0-0-----11-11--11-11--11-11--11-11--------------|
A|-4-4-4-4-4-4-----0-0-0-0-0-0------9--9---9--9---9--9---9--9--------------|
D|-4-4-4-4-4-4-----0-0-0-0-0-0------9--9---9--9---9--9---9--9---12-11-7----|

e|-------------------------------------------------------------------------|
B|-------------------------------------------------------------------------|
G|-6-6-6-6-6-6-----2-2-2-2-2-2---------------------------------------------|
D|-4-4-4-4-4-4-----0-0-0-0-0-0-----11-11--11-11--11-11---------------------|
A|-4-4-4-4-4-4-----0-0-0-0-0-0------9--9---9--9---9--9---------------------|
D|-4-4-4-4-4-4-----0-0-0-0-0-0------9--9---9--9---9--9---------------------|

[Seven String Version] BDADGBe

e|-------------------------------------------------------------------------|
B|-------------------------------------------------------------------------|
G|-6-6-6-6-6-6-----2-2-2-2-2-2---------------------------------------------|
D|-4-4-4-4-4-4-----0-0-0-0-0-0-----11-11--11-11--11-11--11-11--------------|
A|-4-4-4-4-4-4-----0-0-0-0-0-0------9--9---9--9---9--9---9--9--------------|
D|-4-4-4-4-4-4-----0-0-0-0-0-0------9--9---9--9---9--9---9--9---12-11------|
B|----------------------------------0--0---0--0---0--0---0--0---------10---|

e|-------------------------------------------------------------------------|
B|-------------------------------------------------------------------------|
G|-6-6-6-6-6-6-----2-2-2-2-2-2---------------------------------------------|
D|-4-4-4-4-4-4-----0-0-0-0-0-0-----11-11--11-11--11-11---------------------|
A|-4-4-4-4-4-4-----0-0-0-0-0-0------9--9---9--9---9--9---------------------|
D|-4-4-4-4-4-4-----0-0-0-0-0-0------9--9---9--9---9--9---------------------|
B|----------------------------------0--0---0--0---0--0---------------------|
Related for No Giving Up tab