Song name
# A B C D E F G H I J K L M N O P Q R S T U V W X Y Z

Crowbar - New Dawn tab

Band:  CROWBAR
Album: Life's Blood For The Downtrodden
Song:  New Dawn

Transcribed by: general maxx

Tuning: 2.5 steps down (B)

Keys:
 ___ - palm mute
  b  - bend
  r  - release bend
 / \ - slide


INTRO:

|-------------------------------------------|     |-------------------------|
|-------------------------------------------|     |-------------------------|
|-------------------------------------------|     |-------------------------|
|-8--7-7-8-------------------------5-6-5-4--|     |-8-----------------------|
|-6--5-5-6------------------2b---r-5-6-5-4--|     |-6-----------------------|
|-6--5-5-6--7-6-7-6-5~--0-1--------3-4-3-2--| 4x  |-6-----------------------|
     ___


VERSE:

|----------------------------|
|----------------------------|
|----------------------------|
|-----3--3--4-6-6------------|
|-----1--3--4-6-4------------|
|-/-\-1--1--2-4-4------------| 2x

|------------------------------------------------|
|------------------------------------------------|
|------------------------------------------------|
|-----3--3--4-6-6----6--6--6--6--6--6----7--2----|
|-----1--3--4-6-4----6--6--4--4--6--6----7--2----|
|-/-\-1--1--2-4-4----4--4--4--4--4--4----5--0----|

|--------------------------------------------|
|--------------------------------------------|
|--------------------------------------------|
|-3--3--4-6-6----6--6--6--6--6--6----7--2----|
|-1--3--4-6-4----6--6--4--4--6--6----7--2----|
|-1--1--2-4-4----4--4--4--4--4--4----5--0----|


INTRO


VERSE


INTERLUDE:

|-------------------------------------------|
|-------------------------------------------|
|-------9-----------------------------10----|
|---9-9---9--12---12--12--------------10----|
|-7----------10----9---9---9----------8-----|
|------------10-----------10---9~--8~-------| 4x

|--------------------------------------|
|--------------------------------------|
|-------4----7--------------------5----|
|---4-4---4--7---7--7-------------5----|
|-2----------5---4--4--4----------3----|
|----------------------5---4~--3~------|

|--------------------------------------|
|--------------------------------------|
|-------9----7--------------------5----|
|---9-9---9--7---7--7-------------5----|
|-7----------5---4--4--4----------3----|
|----------------------5---4~--3~------| 3x


OUTRO:

|-----------------------------------------------------|     |-------|
|-----------------------------------------------------|     |-------|
|-----------------------------------------------------|     |-------|
|-7-9\------7-9\--7-8--9-8--7-9\------/10-9\--7-8--8--|     |-7-9\--|
|-5-7\--0-0-5-7\--7-8--9-8--5-7\--0-0-/-8-7\--7-8--6--|     |-5-7\--|
|-------0-0-------5-6--7-6--------0-0---------5-6-----| 6x  |-------|
        ___                       ___
Tap to rate this tab
# A B C D E F G H I J K L M N O P Q R S T U V W X Y Z