Song name
# A B C D E F G H I J K L M N O P Q R S T U V W X Y Z

Cruachan - Bloody Sunday tab

 ^ - hammer on, pull off
 b - bend string up
 r - release bend
 / - slide up
 \ - slide down
 ~ - vibrato
 T - tap
 x - struck string
 . - play the note and then mute it
 < - raising volume
PM - palm mute
AH - Artificial Harmonic
NH - Natural Harmonic
\  / - Tremolo Bar
 \/


Down-D tunning: (DADGBe)

INTRO:
 |Acoustic guitar:
e|--------------0----------------------0-------------|
B|----3---------1----3--------3--------1----3--------|
G|----2---------0----2--------2--------0----2--------|X4
D|----0---------0----0--------0--------0----0--------|
A|----0---------0----0--------0--------0----0--------|
D|----0--------------0--------0-------------0--------|

   D                     D/C
|-------------0---------------------0--------------|
|--3--3-3-3-3-3--3-3-3-3-3--3-3-3-3-3--3-3-3-3-----|
|--2--2-2-2-2-2--2-2-2-2-2--2-2-2-2-2--2-2-2-2-----|
|--0--0-0-0-0-0--0-0-0-0-0--0-0-0-0-0--0-0-0-0-|---|
|--0----------0----------3--3-3-3-3-3--3-3-3-3-|---|
|--0----------0----------0----------0----------|---|
Hear the song
   D/Bb                  D/G                     |X2
so you can play
|-------------0---------------------0-----------------|     this rhythm well
|--3--3-3-3-3-3--3-3-3-3-3--3-3-3-3-3--3-3-3-3-|------|
|--2--2-2-2-2-2--2-2-2-2-2--2-2-2-2-2--2-2-2-2--------|
|--0--0-0-0-0-0--0-0-0-0-0--0-0-0-0-0--0-0-0-0--------|
|--1--1-1-1-1-1--1-1-1-1-0--0-0-0-0-0--0-0-0-0--------|
|--0----------0----------5--5-5-5-5-5--5-5-5-5--------|

|Distor guitar:
|---------------------------------------------------|
|---------------------------------------------------|
|---------------------------------------------------|
|--0----0-3^0-0-2---------0----0-3^0-0-2----5---|---|
|------------------3-5--------------------3-----|---|
|---------------------------------------------------|
|FIG1
                                                  |X2
|-----------------------------------------------|---|
|-----------------------------------------------|---|
|---------------------------------------------------|
|----0----0-3^0-0-2---------5^3-----0-2-3--2-0------|
|--------------------3-5--------3^5-----------------|
|---------------------------------------------------|


VERSE1:
|----------------------------------------------------------------------|
|----------------------------------------------------------------------|
|----------------------------------------------------------------------|
|-0----0--0----0--0-----0--0----0--0-----0--0----0--0----0--0----0--5--|
|-0----0--0----0--0-----0--0----0--0-----0--0----0--0----0--0----0--5--|
|-0----0--0----0--0-----0--0----0--0-----0--0----0--0----0--0----0--5--|

PM.................................................................

|----------------------------------------------------------------|
|----------------------------------------------------------------|
|----------------------------------------------------------------|
|--5--5----5--5----5--5----5--5----5--5----5--5----5--5----5--0--|
|--5--5----5--5----5--5----5--5----5--5----5--5----5--5----5--0--|
|--5--5----5--5----5--5----5--5----5--5----5--5----5--5----5--0--|

PM...........................................................

|-----------------------------------------------------------------------|
|-----------------------------------------------------------------------|
|-----------------------------------------------------------------------|
|--0----0--0----0--0-----0--0----0--0-----0--0----0--0----0--0----0--5--|
|--0----0--0----0--0-----0--0----0--0-----0--0----0--0----0--0----0--5--|
|--0----0--0----0--0-----0--0----0--0-----0--0----0--0----0--0----0--5--|

PM.................................................................

|------------------------------------------------------------|
|------------------------------------------------------------|
|------------------------------------------------------------|
|--5--5----5--5----5--5----5--3----3--3----3--3----3--3----3-|
|--5--5----5--5----5--5----5--3----3--3----3--3----3--3----3-|
|--5--5----5--5----5--5----5--3----3--3----3--3----3--3----3-|

PM.......................................................


|----------------------------------------------------------------------|
|----------------------------------------------------------------------|
|----------------------------------------------------------------------|
|-0----0--0----0--0-----0--0----0--0-----0--0----0--0----0--0----0--5--|
|-0----0--0----0--0-----0--0----0--0-----0--0----0--0----0--0----0--5--|
|-0----0--0----0--0-----0--0----0--0-----0--0----0--0----0--0----0--5--|

PM.................................................................

|----------------------------------------------------------------|
|----------------------------------------------------------------|
|----------------------------------------------------------------|
|--5--5----5--5----5--5----5--5----5--5----5--5----5--5----5--0--|
|--5--5----5--5----5--5----5--5----5--5----5--5----5--5----5--0--|
|--5--5----5--5----5--5----5--5----5--5----5--5----5--5----5--0--|

PM...........................................................

|-----------------------------------------------------------------------|
|-----------------------------------------------------------------------|
|-----------------------------------------------------------------------|
|--0----0--0----0--0-----0--0----0--0-----0--0----0--0----0--0----0--5--|
|--0----0--0----0--0-----0--0----0--0-----0--0----0--0----0--0----0--5--|
|--0----0--0----0--0-----0--0----0--0-----0--0----0--0----0--0----0--5--|

PM.................................................................

|------------------------------------------------------------|
|------------------------------------------------------------|
|------------------------------------------------------------|
|--5--5----5--5----5--5----5--3~-----------------------------|
|--5--5----5--5----5--5----5--3~-----------------------------|
|--5--5----5--5----5--5----5--3~-----------------------------|
   PM.......................

CHORUS:
-FIG1 X2

VERSE2:
-Same Riffs

CHORUS:
-FIG1 X2

BRIDGE:
|---------------------------------------------|
|---------------------------------------------|
|---------------------------------------------|FIG2
|---------------------------------------------|X4
|--7------7-------7------5------2------3---5--|
|--7------10------9------5------2------3---5--|

-then:
|---------------------------------------------------------|
|---------------------------------------------------------|
|---------------------------------------------------------|
|--------------------------------------------5---5-5--|---|
|----------------3-----3-3-3-7-5-----5-5-5-7--------------|
|
|--7-----7-7-5-7--------------------------------------|
|

 |X4
|-----------------------------------------------------|
|
|-----------------------------------------------------|---|
|---------------------------------------------------------|
|--5-5-----7-----5----------------------------------------|
|------7-5---------7-5-3-0---------3-5^3-2-3^2------------|
|------------------------------5^7-------------5/7--------|

VERSE3:
-Same Riffs

CHORUS:
-FIG1 X2
Tap to rate this tab
# A B C D E F G H I J K L M N O P Q R S T U V W X Y Z