Song name
# A B C D E F G H I J K L M N O P Q R S T U V W X Y Z

Css - Off The Hook tab

This is my second tab, but it wasn't too difficult.
I think its about 80% correct.




Intro:

 Guitar 2
e|-5-5-5-5-0-3-3----5-5-5-5-0-3--------------|
b|-5-5-5-5-0-5-5----5-5-5-5-0-5--------------|
g|-------------------------------------------|
d|-------------------------------------------|
a|-------------------------------------------|
E|-------------------------------------------| 2x



verse

 Guitar 1
e|-------------------------------------------|
b|-------------------------------------------|
g|-------------------------------------------|
d|---5-5-x-x-7-7-----------------------------|
a|---5-5-x-x-7-7-----------------------------|
E|---3-3-x-x-5-5-----------------------------| 4x

(This part kicks in when the 3rd line begins)


Why is that we stand so still? (still) 
People gonna start thinking we're statues (aha) 
This silence is disturbing me 
People talk but I can't hear 



chorus

 Guitar
e|-------------------------------------------|
b|-------------------------------------------|
g|---9---------------------------------------|
d|---9---7-----------------------------------|
a|---7---7-----------------------------------|
E|-------5-----------------------------------|

I'm off the hook (Auuuh) 
Off the hook 
I think I'm off the hook, baby 
Off the hook 



Intro part again:

 Guitar2
e|-5-5-5-5-0-3-3----5-5-5-5-0-3--------------|
b|-5-5-5-5-0-5-5----5-5-5-5-0-5--------------|
g|-------------------------------------------|
d|-------------------------------------------|
a|-------------------------------------------|
E|-------------------------------------------| 2x



Verse

 Guitar1
e|-------------------------------------------|
b|-------------------------------------------|
g|-------------------------------------------|
d|---5-5-x-x-7-7-----------------------------|
a|---5-5-x-x-7-7-----------------------------|
E|---3-3-x-x-5-5-----------------------------| 8x


At the 3rd line the intro part kicks in:

 Guitar2
e|-5-5-5-5-0-3-3----5-5-5-5-0-3--------------|
b|-5-5-5-5-0-5-5----5-5-5-5-0-5--------------|
g|-------------------------------------------|
d|-------------------------------------------|
a|-------------------------------------------|
E|-------------------------------------------| 2x

Let's find us both a place to sit 
The more I talk the more my bones get heavy 
The silence is disturbing me 
Don't they know I can't read lips? 



Chorus

 Guitar1
e|-------------------------------------------|
b|-------------------------------------------|
g|---9---------------------------------------|
d|---9---7-----------------------------------|
a|---7---7-----------------------------------|
E|-------5-----------------------------------|

I'm off the hook (Auuuh) 
Off the hook 
I think I'm off the hook, baby 
Off the hook 



Break

Off the hooooooook......

 Guitar1
e|-------|
b|-------|
g|-----9-|
d|--9--9-|
a|--9--7-|
E|--7----|


 Guitar 1
e|-------------------------------------------|
b|-------------------------------------------|
g|-------------------------------------------|
d|--7----------------------------------------|
a|--7----0-0-3-3-0-0-3-3-0-0-3-3-0-0-3-3-----|
E|--5----------------------------------------| 2X

 Guitar2
e|-------------------------------------------|
b|-------------------------------------------|
g|-------------------------------------------|
d|--7------------2-2-------------2-2---------|
a|--7----0-0-3-3-----3-3-0-0-3-3-----3-3-----|
E|--5----------------------------------------| 2X

yeah.. 
Yeah, you were right this is really fun 
I never got this dumb before 

e|-------------------------------------------|
b|-------------------------------------------|
g|-------------------------------------------|
d|-9-------2---------------------------------|
a|-9-------2---------------------------------|
E|-7-------0---------------------------------|



Solo

 Guitar1

e|-------------------------------------------|
b|-------------------------------------------|
g|----------5-5------------------------------|
d|--5-5-7-7-5-5-7-7--------------------------|
a|--5-5-7-7-3-3-7-7--------------------------|
E|--3-3-5-5-----5-5--------------------------| 8X

 Guitar2
e|---------------------------------------------------------------------|
b|---------------------------------------------------------------------|
g|---------------------------------5-5-5-5-----------------------------|
d|-----------------5-5-5-5-7-7-7-7---------7-7-7-7-5-5-5-5-------------|
a|-5-5-5-5-7-7-7-7-----------------------------------------7-7-7-7-----|
E|---------------------------------------------------------------------|


e|--------------------------------------------------------------------|
b|---------------------------------5-5-5-5----------------------------|
g|-----------------5-5-5-5-7-7-7-7---------7-7-7-7-5-5-5-5------------|
d|-5-5-5-5-7-7-7-7-----------------------------------------7-7-7-7----|
a|--------------------------------------------------------------------|
E|--------------------------------------------------------------------|



Chorus

 Guitar1
e|-------------------------------------------|
b|-------------------------------------------|
g|---9---------------------------------------|
d|---9---7-----------------------------------|
a|---7---7-----------------------------------|
E|-------5-----------------------------------|

Off the hook (Auuuh) 
Off the hook 
I think I'm off the hook, baby 
Off the hook



Outro

 Guitar 2
e|-5-5-5-5-0-3-3----5-5-5-5-0-3--------------|
b|-5-5-5-5-0-5-5----5-5-5-5-0-5--------------|
g|-------------------------------------------|
d|-------------------------------------------|
a|-------------------------------------------|
E|-------------------------------------------| 4x

(Guitar1 Kicks in when the 3rd time of the intro parts begins)
 Guitar 1
e|-------------------------------------------|
b|-------------------------------------------|
g|-------------------------------------------|
d|---5-5-x-x-7-7-----------------------------|
a|---5-5-x-x-7-7-----------------------------|
E|---3-3-x-x-5-5-----------------------------| 4X

 The rest is played without guitars.

Why is that we stand so still? 
People gonna start thinking we're statues 
The silence is disturbing me 
People talk but I can't hear 
I'm off the hook.



That's it
Enjoy it,
Krien


Tap to rate this tab
# A B C D E F G H I J K L M N O P Q R S T U V W X Y Z