Song name
# A B C D E F G H I J K L M N O P Q R S T U V W X Y Z

Cult - Wild Hearted Son tab

Play at the begining

--14-13-14-16----------------------------------------------------------|
----------------14--14~~-----------------------------------------------|
----------------------------11-----13p11-------------------------------|
------------------------------------------11-11~~----------------------|
-----------------------------------------------------------------------|
-----------------------------------------------------------------------|

-------------------------12-14-19-----16-------------------------------|
-14~~14-12---------12-14-----------------14~~--------------------------|
-----------15----------------------------------------------------------|
-----------------------------------------------------------------------|
-----------------------------------------------------------------------|
-----------------------------------------------------------------------|

-------12-14-19--21~~-------21\19--------------------------------------|
-12-14-----------------------------------------------------------------|
-----------------------------------------------------------------------|
-----------------------------------------------------------------------|
-----------------------------------------------------------------------|
-----------------------------------------------------------------------|


This part repeats through the song

----14-13-14-16--------------14-13-14----------------------------------|
-14-------------14-14~~---------------14---12-14~~---------------------|
-----------------------------------------------------------------------|
-----------------------------------------------------------------------|
-----------------------------------------------------------------------|
-----------------------------------------------------------------------|

-14-13-14-16-----------------------------------------------------------|
--------------12h14p12~~-----------------------------------------------|
-----------------------------------------------------------------------|
-----------------------------------------------------------------------|
-----------------------------------------------------------------------|
-----------------------------------------------------------------------|


I dont know if its right, but I think it is very close.

Corrections
hectorbarrerav@hotmail.com
Tap to rate this tab
 
# A B C D E F G H I J K L M N O P Q R S T U V W X Y Z