Song name
# A B C D E F G H I J K L M N O P Q R S T U V W X Y Z

Cure - The Walk tab

			     THE WALK - the Cure
-----------------------------------------------------------------------------
Tabbed by:Swave75
Email:

Tuning:Standard

Robert Smith's main riff when played live


e|----------------2-------------------|
B|---0---0--0--0----3----0--0--0------|
G|--2--2--2--2---------2--2--2--------|
D|2------------------2----------------|
A|------------------------------------|
E|------------------------------------|

Porl Thompson's part keyboard arranged for guitar when played live

e|---------------------------------------------|
B|-13-15-17-15-13-15-12-10-10-10----10----9----|
G|-------------------------------12----12------|
D|---------------------------------------------|
A|---------------------------------------------|
E|---------------------------------------------|

Verse keyboard arranged for guitar

e|---------------------------------------------------------------7--|
B|-------12-10-10-12---------------------------12-10-10-12-------5--|
G|----12-------------9----12-9------------9-12-------------9-12-----|
D|-14------------------12------------9-12---------------------------|
A|-----------------------------12-12--------------------------------|
E|------------------------------------------------------------------|

e|-10-12-10-10-12-15-12-10-12-10-12-15-10-12--|
B|-10-12-10-10-12-15-12-10-12-10-12-15-10-12--|
G|--------------------------------------------|
D|--------------------------------------------|
A|--------------------------------------------|
E|--------------------------------------------|
Tap to rate this tab
# A B C D E F G H I J K L M N O P Q R S T U V W X Y Z