Song name
# A B C D E F G H I J K L M N O P Q R S T U V W X Y Z

Current Swell - Brads Song tab

guitar 1 - Capo 6

C - Am - G - F

Guitar 2
e-----9---9---9---9----6---6----4---4----------------------|
b---7---7---7---7----4---4----2---2------------------------|
g----------------------------------------------------------|
d----------------------------------------------------------|
a----------------------------------------------------------|
e----------------------------------------------------------|

riff

e----------------------------------------------------------|
b----9s11-9s11-9-7-9-9s11-7-7s9-9-9s11-9-7-7-7-4-7p4-4-----|
g------------------------------------------------------6---|
d----------------------------------------------------------|
a----------------------------------------------------------|
e----------------------------------------------------------|


Guitar 2
e-------9-6---9-6-4---7-6-2--------------------------------|
b----------------------------------------------------------|
g----------------------------------------------------------|
d----------------------------------------------------------|
a----------------------------------------------------------|
e----------------------------------------------------------|

Something along these lines.
Enjoy.
Tap to rate this tab
 
# A B C D E F G H I J K L M N O P Q R S T U V W X Y Z